Oops, an error
Loading. Please wait.

Citizen tab

3,472 views 117 this week
2 commentsread comments
1 2 3 4 5
x 6
add to favorites
×
Save as Personal and add changes to this tab that will be seen only by you. Learn more ›
×
You can save this tab as Personal to edit and correct it or add notes. All changes will be seen only by you. Learn more »
launch autoscroll
font size
0
reset
how to read this tab
guitar tuner
edit
Autoscroll
slow
fast
+/-
esc
set tempo
stop
This should be entirely correct, transcribed from Northlane's own playthrough video. 
I think the only mistakes might be some of the attack notes on the chorus and some of
the timings on the chugging parts.

Intro [0:00-0:34]

C |-----------------------------------------------------------|
G |-----------------------------------------------------------|
D#|-----------------------------------------------------------|
A#|-----------------------------------------------------------|
F |-7-----7-----7------7-----7-----7-----7-----7--------------|
A#|-----------------------------------------------------------|
F |---5-7---5-7---7-5----5-7---5-7---5-7---5-7---7-5-75-85757-|

C |-----------------------------------------------------------|
G |-----------------------------------------------------------|
D#|-----------------------------------------------------------|
A#|-----------------------------------------------------------|
F |--7-----7-----7-----------7-----7-----7--------------------|
A#|-----------------------------------------------------------|
F |----5-7---5-7---7-5--5757---5-7---5-7---7-5--75-857--------| x3

Watch out for that slight switch up on the notes going 5-7 to 7-5

Gtr 1 [0:34-1:18]

C |-----------------------------------------------------------|
G |----------------------------------------------------121212~|
D#|-9~-9~999999999999~-9~-9~7ph9ph7ph9ph7ph9ph7ph9ph7s/-------|
A#|-----------------------------------------------------------|
F |-----------------------------------------------------------|
A#|-----------------------------------------------------------|
F |-----------------------------------------------------------|
                                                        
C |-----------------------------------------------------------|
G |----------------------------------------------------88888~-|
D#|-9~-9~999999999999~-9~-9~7ph9ph7ph9ph7ph9ph7ph9ph7s/-------|
A#|-----------------------------------------------------------|
F |-----------------------------------------------------------|
A#|-----------------------------------------------------------|
F |-----------------------------------------------------------|

Just get a feel for the light tremolos and general drone here

Gtr 1 [0:57-1:18]

C |-----------------------------------------------------------|
G |-12---12----12---10---10---8---8---------------------------|
D#|-9----9-----9----7----7----9---9---------------------------|
A#|-7----7-----7----7----7----7---7---------------------------|
F |---x6---x16---x8---x6---x8--x8--x8-------------------------|
A#|-----------------------------------------------------------|
F |-----------------------------------------------------------| 

Listen for the breaks here, theres one after every segment except the 3rd and 5th

C |-----------------------------------------------------------|
G |-12--------------------------------------------------------|
D#|-9---------------------------------------------------------|
A#|-7---------------------------------------------------------|
F |---x64-----------------------------------------------------|
A#|-----------------------------------------------------------|
F |-----------------------------------------------------------| 

Gtr 2 [0:56-1:18]

C |-----------------------------------------------------------|
G |-----------------------------------------------------------|
D#|-----------------------------------------------------------|
A#|-----------------------------------------------------------|
F |-------------------7---------------------------------------|
A#|-----------------------------------------------------------|
F |-7-7b--777b-777b-7---57-7777b-7777b-7-95-------------------| x4 

miss out the 95 on the 4th time

Chorus, Both Guitars [1:18-1:41]

C |-------------------------------------------------------------------|
G |-------------------------------------------------------------------|
D#|-------------------------------------------------------------------|
A#|------5~5~------------5~5~-----------------------------------------|
F |--------------------------------------7~--------------7~------999--|
A#|-------------------------------------------------------------------|
F |-333~3----3-333-3-3333----3-333-3555-5--0~0~000~0~0000--0-0-00-----| 

C |-------------------------------------------------------------------|
G |-------------------------------------------------------------------|
D#|-------------------------------------------------------------------|
A#|------5~5~------------5~5~------------7~----------9~----------999--|
F |-------------------------------------------------------------------|
A#|-------------------------------------------------------------------|
F |-333~3----3-333-3-3333----3-333-3555-5--0~0~000~0~--000~0~0~0~-----|

Backing Guitar (or Guitar 1) [1:18-1:41]

C |-----------------------------------------------------------|
G |-12----10----8---------------------------------------------|
D#|-9-----7-----9---------------------------------------------|
A#|-7-----7-----7---------------------------------------------|
F |---x32----x8---x24-----------------------------------------|
A#|-----------------------------------------------------------|
F |-----------------------------------------------------------| x4

Break, Both Guitars [1:41-1:52]

C |-----------------------------------------------------------|
G |-----------------------------------------------------------|
D#|-----------------------------------------------------------|
A#|-----------------------------------------------------------|
F |-7-----7-----7------7-----7-----7-----7-----7--------------|
A#|-----------------------------------------------------------|
F |---5-7---5-7---7-5~---5-7---5-7---5-7---5-7---7-5~75-95757-|

C |-----------------------------------------------------------|
G |-----------------------------------------------------------|
D#|-----------------------------------------------------------|
A#|-----------------------------------------------------------|
F |--7-----7-----7-----------7-----7-----7--------------------|
A#|-----------------------------------------------------------|
F |----5-7---5-7---7-5~-5757---5-7---5-7---7-5~75-957---------|

Same as the intro but hold those end 5s and the 8 switches to a 9

Both Guitars [1:52-2-15]

C |---------------------------------------------------------------------------|
G |---------------------------------------------------------------------------|
D#|---------------------------------------------------------------------------|
A#|--------------------------------------------------------------------7------|
F |--------77----7b---77~----77~----7b----77~----9b---1010~----1010~----------|
A#|---------------------------------------------------------------------------|
F |-7~-5757--5757--575---5757---5757--5757---5757--575-----5757-----756-0~----| 

C |---------------------------------------------------------------------------|
G |---------------------------------------------------------------------------|
D#|---------------------------------------------------------------------------|
A#|-----------------------------------------------------------------7---------|
F |-----77----7b---77~----77~----7b----77~----9b---1010~----1010~-------------|
A#|---------------------------------------------------------------------------|
F |-5757--5757--575---5757---5757--5757---5757--575-----5757-----756-7~-------| 

The bends aren't straight up bends but more sustain the note and make it sound more distinct
than the double notes

Gtr 2 [2:26-2:36]

C |-----------------------------------------------------------|
G |-----------------------------------------------------------|
D#|-----------------------------------------------------------|
A#|-----------------------------------------------------------|
F |-----------------------------------------------------------|
A#|-----------------------------------------------------------|
F |-7-7b--777b-777b-7-8-57-7777b-7777b-7-95-------------------| x2

The second time miss out the last 95

Both Guitars [2:36-2:58]

C |-----------------------------------------------------------|
G |-----------------------------------------------------------|
D#|-----------------------------------------------------------|
A#|-----------------------------------------------------------|
F |-------------------7---------------------------------------|
A#|-----------------------------------------------------------|
F |-7-7b--777b-777b-7---57-7777b-7777b-7-85-------------------| x4 

The 4th time miss out the bend on the last 7 and the 7-85


Chorus Again, Both Guitars [2:59-3:22]

C |-------------------------------------------------------------------|
G |-------------------------------------------------------------------|
D#|-------------------------------------------------------------------|
A#|------5~5~------------5~5~-----------------------------------------|
F |--------------------------------------7~--------------7~------999--|
A#|-------------------------------------------------------------------|
F |-333~3----3-333-3-3333----3-333-3555-5--0~0~000~0~0000--0-0-00-----| 

C |-------------------------------------------------------------------|
G |-------------------------------------------------------------------|
D#|-------------------------------------------------------------------|
A#|------5~5~------------5~5~------------7~---------9~----------------|
F |-------------------------------------------------------------------|
A#|-------------------------------------------------------------------|
F |-333~3----3-333-3-3333----3-333-3555-5--0~0~000~0--000~0~0~0~555---|

Mostly the same as before but swap out the attack notes at the end for some rhythm ones

[3:22-3:44]

C |-------------------------------------------------------------------|
G |-------------------------------------------------------------------|
D#|-------------------------------------------------------------------|
A#|------5~5~------------5~5~-----------------------------------------|
F |--------------------------------------7~--------------7~------999--|
A#|-------------------------------------------------------------------|
F |-333~3----3-333-3-3333----3-333-3555-5--0~0~000~0~0000--0-0-00-----| 

C |-------------------------------------------------------------------|
G |-------------------------------------------------------------------|
D#|-------------------------------------------------------------------|
A#|------5~5~------------5~5~------------7~----------9~----------999--|
F |-------------------------------------------------------------------|
A#|-------------------------------------------------------------------|
F |-333~3----3-333-3-3333----3-333-3555-5--0~0~000~0~--000~0~0~0~-----|

Backing Guitar (or Guitar 1 again) [2:59-3:44]

C |-----------------------------------------------------------|
G |-12----10----8---------------------------------------------|
D#|-9-----7-----9---------------------------------------------|
A#|-7-----7-----7---------------------------------------------|
F |---x32----x8---x24-----------------------------------------|
A#|-----------------------------------------------------------|
F |-----------------------------------------------------------| x4

Both Guitars [3:44-3:55]

C |-----------------------------------------------------------|
G |-----------------------------------------------------------|
D#|-----------------------------------------------------------|
A#|-----------------------------------------------------------|
F |-7-----7-----7------7-----7-----7-----7-----7--------------|
A#|-----------------------------------------------------------|
F |---5-7---5-7---7-5~---5-7---5-7---5-7---5-7---7-5~75-95757-|

C |-----------------------------------------------------------|
G |-----------------------------------------------------------|
D#|-----------------------------------------------------------|
A#|-----------------------------------------------------------|
F |--7-----7-----7-----------7-----7-----7--------------------|
A#|-----------------------------------------------------------|
F |----5-7---5-7---7-5~-5757---5-7---5-7---7-5~75-957---------|

[3:55-4:05]

C |-----------------------------------------------------------|
G |-----------------------------------------------------------|
D#|-----------------------------------------------------------|
A#|-----------------------------------------------------------|
F |-7-----7-----7------7-----7-----7-----7-----7--------------|
A#|-----------------------------------------------------------|
F |---5-7---5-7---7-5----5-7---5-7---5-7---5-7---7-5-75-95757-|

C |-----------------------------------------------------------|
G |-----------------------------------------------------------|
D#|-----------------------------------------------------------|
A#|-----------------------------------------------------------|
F |--7-----7-----7-----------7-----7-----7--------------------|
A#|-----------------------------------------------------------|
F |----5-7---5-7---7-5--5757---5-7---5-7---7-5~~~~------------|

Basically exactly the same but go back to the intros harsh stops on the notes.

And thats it!

            
            
Suggest correction
Creating personal tab
Creating personal tab
You can edit any tab online and save it as your Personal.

You can edit, replace or remove any tab part or add personal notes – all changes will be seen only by you.

Personal tabs can be accessed anytime from any device, even offline.
Learn more »
comments
print report bad tab
2 comments total.
0 reply
java8 130 Apr 27, 2017 11:05 PM

Thanks man! Was waiting if someone would do this after the playthrough video. I got some of the parts from there but i was lazy to get the whole thing down. Thank you very much!

0 reply
jeno7749 32 Jul 23, 2017 09:37 AM

soo keen to mah 7 string :3

guest
You may want to rate the tab now too:
select rating
Wanna post a correction for this tab? Suggest correction