Oops, an error
Loading. Please wait.

Quantum Flux Tab

version 1
version 1

Whole song

Interactive

31,602 views 48 this week
5 commentsread comments
1 2 3 4 5
x 8
add to favorites
launch autoscroll
font size
0
reset
how to read this tab
guitar tuner
Autoscroll
slow
fast
+/-
esc
set tempo
stop
Help us to improve Ultimate-Guitar.com Take our survey!
×
Author
Difficulty
intermediate
Tuning (low to high) F C F Eb G C (I know its meant to be 7 but cant afford one)
notation:


[Intro]

e|---t17p0-t12s8--------t17p0-t12s8--------t17p0-t12s8s10s8-----------|
A|---------------t10s12-------------t10s12----------------------------|
D|--------------------------------------------------------------------|
G|--------------------------------------------------------------------|
B|--------------------------------------------------------------------|
E|--------------------------------------------------------------------|

e|---t17p0-t12s8--------t17p0-12t24-t12s15p0--t12s8-------------------|
A|---------------t10s12------------------------------t10s12-----------|
D|--------------------------------------------------------------------|
G|--------------------------------------------------------------------|
B|--------------------------------------------------------------------|
E|--------------------------------------------------------------------|

e|---t15p0-12s8--------t15p0-12s8--12s8s10s8--t15p0-t12s8----------t12s15p0-------|
A|---------------10s12-------------------------------------t10s12-----------------|
D|--------------------------------------------------------------------------------|
G|--------------------------------------------------------------------------------|
B|--------------------------------------------------------------------------------|
E|--------------------------------------------------------------------------------|


[Riff 1]

e|-------------------------------------------------------------------|
A|-------------------------------------------------------------------|
D|-------------------------------------------------------------------|
G|-------------------------------------------------------------------|
B|------------2b-----------2b-----2b--------2b-----------------------|
E|--0-00-0-00----0-0-00-00----0-0---0-00-00---0-00-000-0-3101--------|


[Clean Verse]

e|---------------------------------------------------------------------------|
A|-------------------------------(---12-)x8-(----13)x8-13tr12tr18tr13tr------|
D|-----9-(in some weird pattern)--(0-9---)---(0-9---)------------------------|
G|---------------------------------------------------------------------------|
B|---------------------------------------------------------------------------|
E|---------------------------------------------------------------------------|

e|-------------------------------------------------------------------------|
A|----tr13120--tr13--------------------------------------------------------|
D|-------------------------------------------------------------------------|
G|-------------------------------------------------------------------------|
B|-------------------------------------------------------------------------|
E|-------------------------------------------------------------------------|


[Chorus]

e|-----------------------------------------------------------------------------------|
A|-------5---------------------------------------------------------------------------|
D|-------------------7-4--------------5----------4-------------5---------------------|
G|-------------------------------------------------------5-4-0----------7------------|
B|--2-----2--7-------------4---------------------------------------------5-----------|
E|----0----0---5-5-----0-0--5-8-8-8--8-88-88----888-8-8-------3-33-3-3----3-33-------|

e|-----------------------------------------------------------------------------------|
A|-----------------------------------------------------------------------------------|
D|-------------------------2---------4----5---------5-4-----------4------------------|
G|------------7----------------------------------------------------------------------|
B|-------------5---------------------------------------------------------------------|
E|--5-55-55------0-0-00---00-0-0-0--0-00--88-8-8-8---55-5-55-55--5-0-0-0-00-0--------|

e|----------------------------------------------12---------------------------------|
A|-------------------------------------------------13------------------------------|
D|-------------------5-------------------------------------------------------------|
G|------------5-4-0------------7---------------------------------------------------|
B|------------------------------5--------------------------------------------------|
E|--00-000-0---------3-33-3-3-----3-33-5-55-55------0------------------------------|


[Pre-Riff 1]

e|-----------------------------------------------------------------------------|
A|---tr13----------------------------------------------------------------------|
D|----tr16---------------------------------------------------------------------|
G|-----------------------------------------------------------------------------|
B|-----------------------------------------------------------------------------|
E|-----------------------------------------------------------------------------|


[Riff 1]

e|-------------------------------------------------------------------|
A|-------------------------------------------------------------------|
D|-------------------------------------------------------------------|
G|-------------------------------------------------------------------|
B|------------2b-----------2b-----2b--------2b-----------------------|
E|--0-00-0-00----0-0-00-00----0-0---0-00-00---0-00-000-0-3101--------|

last ending for riff 1


[Riff 1]

e|----------------------------|
A|----------------------------|
D|----------------------------|
G|----------------------------|
B|----------------------------|
E|--0-000-00------------------|
Set me free

e|------------------------------------------------------------------|
A|------------------------------------------------------------------|
D|------------------------------------------------------------------|
G|------------------------------------------------------------------|
B|------------------------------------------------------------------|
E|-0b-0-0b-xx-0b-0-0-0-0b-xx-0-3101---------------------------------|


[Chorus]

e|-----------------------------------------------------------------------------------|
A|-------5---------------------------------------------------------------------------|
D|-------------------7-4--------------5----------4-------------5---------------------|
G|-------------------------------------------------------5-4-0----------7------------|
B|--2-----2--7-------------4---------------------------------------------5-----------|
E|----0----0---5-5-----0-0--5-8-8-8--8-88-88----888-8-8-------3-33-3-3----3-33-------|

e|----------------------------------------------------------------------------------|
A|----------------------------------------------------------------------------------|
D|-------------------------2---------4----5---------5-4-----------4-----------------|
G|------------7---------------------------------------------------------------------|
B|-------------5--------------------------------------------------------------------|
E|--5-55-55------0-0-00---00-0-0-0--0-00--88-8-8-8---55-5-55-55--5-0-0-0-00-0-------|

e|----------------------------------------------12---------------------------------|
A|-------------------------------------------------13------------------------------|
D|-------------------5-------------------------------------------------------------|
G|------------5-4-0------------7---------------------------------------------------|
B|------------------------------5--------------------------------------------------|
E|--00-000-0---------3-33-3-3-----3-33-5-55-55------0------------------------------|


e|---t17p0-t12s8--------t17p0-t12s8--------t17p0-t12s8s10s8-----------|
A|---------------t10s12-------------t10s12----------------------------|
D|--------------------------------------------------------------------|
G|--------------------------------------------------------------------|
B|--------------------------------------------------------------------|
E|--------------------------------------------------------------------|

e|---t17p0-t12s8--------t17p0-12t24-t12s15p0--t12s8-------------------|
A|---------------t10s12------------------------------t10s12-----------|
D|--------------------------------------------------------------------|
G|--------------------------------------------------------------------|
B|--------------------------------------------------------------------|
E|--------------------------------------------------------------------|


e|---t15p0-12s8--------t15p0-12s8--12s8s10s8--t15p0-t12s8----------t12s15p0------|
A|---------------10s12-------------------------------------t10s12----------------|
D|-------------------------------------------------------------------------------|
G|-------------------------------------------------------------------------------|
B|-------------------------------------------------------------------------------|
E|-------------------------------------------------------------------------------|


[Riff 1]

e|-------------------------------------------------------------------|
A|-------------------------------------------------------------------|
D|-------------------------------------------------------------------|
G|-------------------------------------------------------------------|
B|-------------------------------------------------------------------|
E|--0-0b-0--0-0-0--0-0--0-0-0--0-0b-0--0-0-0--0-0-0--0-0-0b----------|


************************************

| t  Tap
| p  Pull off
| h  Hammer on
| s  slide
| b  bend
| tr tremolo
| x  mute

************************************
Suggest correction
comments
print report bad tab
5 comments total. Showing first comments.
0 reply
thamiordim 10 Aug 24, 2013 04:15 AM

nice tab man! thats a really cool band.. I have a question.. how the hell can u bend a 0? :p

0 reply
dan.krunkton 82 Sep 03, 2013 11:23 PM

Is the notation on the left of all the tabs ment to be the upside down :S ?

+5 reply
markskie 41 Sep 17, 2013 06:14 AM

You bend a 0 by applying pressure to the string after the neck nut, before the tuning head.

guest
You may want to rate the tab now too:
select rating
Wanna post a correction for this tab? Suggest correction