Oops, an error
Loading. Please wait.

Take 5 Bass Tab

version 1
version 1

Whole song

457 views 1 this week
no commentswrite comment
1 2 3 4 5
3 more votes to show rating
add to favorites
launch autoscroll
font size
0
reset
guitar tuner
Autoscroll
slow
fast
+/-
esc
set tempo
stop
Help us to improve Ultimate-Guitar.com Take our survey!
×
Author
Difficulty
novice
#----------------------------------PLEASE NOTE---------------------------------#
#This file is the author's own work and represents their interpretation of the #
#song. You may only use this file for private study, scholarship, or research. #
#------------------------------------------------------------------------------#

Take 5 (Bassline)
As recorded by Northside

Transcribed by Keaten Higham

G |---------------|---------|-----------|---------|
D |---------------|---------|-----------|---------|
A |---------------|-3-3-3-3-|-7-7-7-0-7-|-5-5-7-5-|
E |3-0-3-3-(3)-3--|---------|-----------|---------|

  Chorus
G |---------------|----------------|---------------|---------------|
D |---------------|----------------|---------------|---------------|     
A |-3-3-3-3-3-3-3-|----------------|-5-5-5-5-5-5-5-|---------------|
E |---------------|-3-3-3-3-3-3-3--|---------------|-3-3-3-3-3-3-3-|

G |---------------|----------------|------------------|-------------------|
D |---------------|----------------|------------------|-------------------|     
A |-3-3-3-3-3-3-3-|----------------|-5-5-5-5-5-5-5-5-5|-5-5-5-5-5-5-5-5-5-|
E |---------------|-3-3-3-3-3-3-3--|------------------|-------------------|
Suggest correction
Give kudos to tab author, rate the tab!
1 2 3 4 5
comments
print report bad tab
guest
You may want to rate the tab now too:
select rating
Wanna post a correction for this tab? Suggest correction