Oops, an error
Loading. Please wait.

Broken Parachute Tab

version 1
version 1

Intro

Whole song

1,043 views 1 this week
1 commentread comment
1 2 3 4 5
please rate
add to favorites
launch autoscroll
font size
0
reset
how to read this tab
guitar tuner
Autoscroll
slow
fast
+/-
esc
set tempo
stop
Help us to improve Ultimate-Guitar.com Take our survey!
×
Northstar CD's are on sale on this site!!! This song is off of "Is This Thing Loaded?" i 
that should cover it.

I noticed that there are NO Northstar tabs around, so i decided there should be some.
OK, this should be right for the intro...

|---------0-----------------------4---------------------|
|-----2-----2---2-0-2-0-------2-----2---2-----2---2/3\2-|
|---2---2-----2---------2---2---2-----2-----2---2-------|
|-------------------------4---------------0-------------|
|-0-----------------------------------------------------|
|-------------------------------------------------------|
Suggest correction
Give kudos to tab author, rate the tab!
1 2 3 4 5
comments
print report bad tab
1 comment total.
0 reply
somewhat_here 172 wrote on October 20 2004, 12:00 am

the chords for the verses and most of the song go like this

----------------
-------7--------
-7--4--7--------
-4--4--5--------
-5--2-----------

guest
You may want to rate the tab now too:
select rating
Wanna post a correction for this tab? Suggest correction