Oops, an error
Loading. Please wait.

Daybreak Bass Tab

194 views 1 this week
no commentswrite comment
1 2 3 4 5
please rate
add to favorites
launch autoscroll
font size
0
reset
guitar tuner
Autoscroll
slow
fast
+/-
esc
set tempo
stop
Help us to improve Ultimate-Guitar.com Take our survey!
×
Author
m3e6oHocK 172
this is an awesome song, some parts were hard to even hear but i did my best,
this is my first tab so please rate it and i hope you enjoy. Sorry in adavance
for any annoying lines being too long or notes being too close together.
I know how annoying those can be so sorry in advance if that is a problem.

h-Hammer On
p-Pull Off
~-Let Ring

Intro: (0:06-0:46)
G---------------------------------------------------------------|
D--------------------------------------5-555555-5(x8)-----------|
A--------------3~-----------2-3-5-7-----------------------------|
E-0~-----3~----------3~-----------------------------------------|

G---------------------------------------------------------------|
D---------------------------------------------------------------|
A--7-5-3-2h3p2-------3~--------------------------3~-------------|
E--------------3~----------5~----3~----0~---3~--------3~--------|

G---------------------------------------------------------------|
D----------5(x16)-----------------------------------------------|
A--2-3-5-7--------77-55-33-22-----------------------------------|
E---------------------------------------------------------------|

Verse: (0:46-1:23)
G----------------------------------------------|-----------------|
D----------------------------------------------|-X2--------------|
A--3(x8)--------------------------3(x8)--------|-X2--77-55-33-22-|
E--------5(x8)-3(x16)-0(x8)-3(x8)-------3(x8)--|-----------------|

G----------------------------------------------|Not posotive about this part,
D--------5-------------5-----------------------|it sounds okay but I'm not sure
A-3~-5-7--------3~-5-7-------------------------|if the D5s are right
E----------3~-----------0~---------------------|

Pre-Guitar Thingy: (1:26-1:37)
G----------------------------------------------|This part is practically
D-----5h7-5-----5h7-5---5-5h7-5-----5h7-5------|inaudible so this is obviously
A--33--------55-------3----------55-------3----|not perfect, but it's close enough
E----------------------------------------------|to use so i guess try to
                                              figure out the timing of what I did
Guitar Thingy: (1:37-1:58)
G-------------------------|-----------------------------|
D-------------------------|-X3--------------------------|
A-3(x8)-5(x8)-------------|-X3-3(x8)-5(x8)--------------|
E-------------0(x8)-3(x8)-|---------------0(x8)-3--3----|

Verse: (1:58-2:31)
G--------------------------------------------------------|
D--------------------------------------------------------|
A-77-55-33-22-3(x8)--------------------------3(x8)-------|
E-------------------5(x8)-3(x16)-0(x8)-3(x8)-------------|3(x8)

G-------------------------------------------------------|
D-------------------------------------------------------|
A-3(x8)-------------------3(x8)------77-55-33-22-3~--5~-|
E------5(x8)-3(x16)-0(x8)------3(x8)--------------------|

Outro: (2:32-3:23)
G-------------------------------|------------------------------|    Then do this
D-------------------------------|-X2---------------------------|X2  whole part
A----------3333------------3333-|-X2------3(x8)-------3(x8)----|X2  twice, so it'd
E-3333-------------0000---------|----3(x8)------0(x8)----------|    be like part
             ^^^                             ^^^                  1,1,2,2,1,1,2,2
           Part 1                           Part 2

G------------------------------------------------------------|
D------------------------------------------------------------|
A-77-55-33-22-3~---5~----------------------------------------|
E------------------------3~----------------------------------|

I think that's it, i hope that works, rate it, comment on it,
send me some feedback, my e-mail is MEOhanian@comcast.net,
most of all, have fun because Northstar f'in rock even if
they did break up
Suggest correction
What's this?
You can suggest a correction to this tab. Community and Mods will review your correction and vote to approve or reject it.
comments
We did not receive enough feedback on this tab! Please rate:
print report bad tab
1 2 3 4 5
guest
You may want to rate the tab now too:
select rating
Please do not post tabs as comments. Select "correction" instead!