Oops, an error
Loading. Please wait.

Is This Thing Loaded Tab

572 views 1 this week
no commentswrite comment
1 2 3 4 5
accurate
x 1
add to favorites
launch autoscroll
font size
0
reset
how to read this tab
guitar tuner
Tab Pro tools
  • play this tab
  • loop segment
  • change instrument
  • show fretboard
  • metronome
Autoscroll
slow
fast
+/-
esc
set tempo
stop
Contributor
Tuning
D A D G B E
NORTHSTAR 
IS THIS THING LOADED? 

Drop D Tuning

GUITAR 1 Intro 
e|-----------------------|
B|---4~---------5~-------|
G|-4~--------------4~----|
D|--------------------4~-|
A|-----------------------|
D|-----------------------|

e|---------------------------------------------------------------|x2
B|-------4h6-4-4~----4----5p4---4----4---5p4--------4---5h4---4--|
G|-4h6-------------4---4------4----4---4------4~--4---4-----4----|
D|---------------------------------------------------------------|
A|---------------------------------------------------------------|
D|---------------------------------------------------------------|

e|---------------------------------------------------------------------------|
B|------4---5p4--------4---5p4-----------------------------------------------|
G|----4---4-----4~---4---4---------------------------------------------------|
D|---------------------------------------------------------------------------|
A|---------------------------------------------------------------------------|
E|---------------------------------------------------------------------------|

e|----------------------------------------|
B|--------0~------------0~-------------0~-|
G|-4~------------2~-----------------------|
D|-4~------------2~------------2~---------|
A|-2~------------0~------------2~---------|
D|-----------------------------2~---------|

e|------------------|
B|------------------|
G|-4----------------|
D|-4--x--2--x-----x-|
A|-2--x--0--x--2--x-|
D|-------------2----|

e|-2----------------------|
B|-2--[strum til chorus]--|
G|-4----------------------|
D|-4----------------------|
A|-2----------------------|
D|------------------------|

e|----------|x4
B|----------|
G|----------|
D|-4-2-6----|
A|-2-0-4--2-|
D|--------2-|
p.m. 

e|--------------------------------------------------------|
B|----------------x----5p4-4h5--2-0--2/5-4-2-0------------|
G|-----4h6-4-4--4---4-------------------------------------|
D|-4h6--------------------------------------------4-2-1-6-|
A|--------------------------------------------------------|
D|--------------------------------------------------------|

e|--------------------------------------------------------------|
B|----------------x-----5p4-4h5--2-0--2/5-4-2-0-----------------|
G|-----4h6-4-4--4---4-------------------------------------------|
D|-4h6--------------------------------------------4-2-1---------|
A|---------------------------------------------------------4-2~-|
D|--------------------------------------------------------------| 

Verses and Chorus Again 

e|----------------------------------|x2
B|---------------------------5p4----|
G|-----------4h6-4~----4h6-------4~-|
D|--4~--1-2---------4h6-------------|
A|--2~------------------------------|
D|----------------------------------|

e|------------------------------------------|x4
B|--------------------4-4--7-7----------4b~-|
G|-x-x-4-x-4--4-4---------------------------|
D|------------------------------------------|
A|------------------------------------------|
D|------------------------------------------|

e|-----------------------------|x4
B|-----------------------------|
G|--------------------------4~-|
D|-4-2-6------[end on]------4~-|
A|-2-0-4--2-----------------2~-|
D|--------2--------------------|


GUITAR 2 Intro 
e|---0----------------------------2~----|
B|-4~--------------4~----------------4~-| 
G|-------------------4~-----------------| 
D|--------------------------------------| 
A|--------------------------------------| 
E|--------------------------------------| 
 
e|-----0---2p0----| 
B|---4---4------4-| 
G|-4--------------| 
D|----------------| 
A|----------------| 
E|----------------| 

e|-------------------------------------|x2
B|------0~------------0~------------0~-|
G|-4~----------2~----------------------|
D|-4-----------2~-----------2~---------|
A|-2~----------0~-----------2~---------|
D|--------------------------2~---------|

e|------------------|
B|------------------|
G|-4----------------|
D|-4--x--2--x-----x-|
A|-2--x--0--x--2--x-|
D|-------------2----|

e|-2---2----------------------|
B|-2---4--[strum til chorus]--|
G|-4---4----------------------|
D|-4---2----------------------|
A|-2---2----------------------|
D|----------------------------|

e|----------|x4
B|----------|
G|----------|
D|-4-2-6----|
A|-2-0-4--2-|
D|--------2-|
p.m. 

e|---------------------------------------|
B|---------------------0~---0~---0~---0~-|
G|---------------------------------------|
D|-4~--2~--------------------------------|
A|-2~--0~--2~----------------------------|
D|-----------2~--------------------------|

Verses and Chorus Again

Listen For Palm Mute Rhythm
e|--------------------------------------------------------2-2-|
B|-----------------------------------4-4------------------4-4-|
G|-----------------------------------4-4----------------------|
D|-4~------4~--------4-4-4--4-4-4-----------------------------|
A|-2~--2~--2~--2~----2-2-2--2-2-2----------2-2-2--2-2-2-------|
D|-----2~------2~--------------------------2-2-2--2-2-2-------|
... .. ... ... 

e|-------------------------|x4
B|-------------------------|
G|----------------------4~-|
D|-4-2-6------[end on]--4~-|
A|-2-0-4--2-------------2~-|
D|--------2----------------|
comments
We did not receive enough feedback on this tab! Please rate:
print report bad tab
1 2 3 4 5
I want to post or [tab]
guest
You may want to rate the tab now too:
select rating
Please do not post tabs as comments. Select "correction" instead!