Oops, an error
Loading. Please wait.

My Wishing Well Disease Tab

241 views 1 this week
no commentswrite comment
1 2 3 4 5
please rate
add to favorites
launch autoscroll
font size
0
reset
how to read this tab
guitar tuner
Tab Pro tools
  • play this tab
  • loop segment
  • change instrument
  • show fretboard
  • metronome
Autoscroll
slow
fast
+/-
esc
set tempo
stop
Contributor
NORTHSTAR
IS THIS THING LOADED
MY WISHING WELL DISEASE

Standard Tuning

INTRO [Sounds like 3 guitars)

GUITAR 1
|------|--------------------------|
|------|--------------------------|
|------|--------------------------|
|--6~--|--6-6-6-6-6-6-4-6-2-------|
|--4~--|--4-4-4-4-4-4-2-4-0-------|
|------|--------------------[x4]--|

GUITAR 2
|------|-----------------------------------------------------|
|------|-----------------------------------------------------|
|------|----------11/9---9-11------------11/9--11-13-9-------|
|--6~--|--6-6-6-6--X-X---X--X-7--6-6-6-6--X-X---X--X-X-------|
|--4~--|--4-4-4-4--9/7---7--9-7--4-4-4-4--9/7---9-11-7-------|
|------|----------------------5------------------------[x2]--|

GUITAR 3 
[It's hard to hear if there are any changes, sounds prety repetitive though]
|--0-0-0---------|
|--5-5-5--[etc]--|
|----------------|
|----------------|
|----------------|
|----------------|
[they might use a delay i dunno]

VERSE 1

2 BARS JUST 1 GUITAR, NO DRUMS
THEN BOTH GUITARS. 
|---------------------------|
|---------------------------|
|---------------------------|
|--6-6-6-6-222--------------|
|--4-4-4-4-000-2-2-2-2-444--|
|--------------0-0-0-0-222--|x6

CHORUS

GUITAR 1
|-------------------------------------|
|-------------------------------------|
|-------------------------------------|
|-6-6-6-6-4-6-2--6-6-6-6-6-----4-6-2--|
|-4-4-4-4-2-4-0--4-4-4-4-4-222-2-4-0--|
|--------------------------000--------|x2
                         pm...

GUITAR 2 - JUST PLAY THE INTRO RIFF

VERSE 2 

GUITAR 1 - starts, lets E5 ring, Guitar 2 comes in when G1 picks the open e.
|------------------0--|
|--------------(0)----|
|---------------------|
|---------------------|
|--2~------2~---------|
|--0~------0~---------|

GUITAR 2
|---------------------|
|---------------------|
|--9----11--13/14-13--|
|--X-----X---X--X--X--|
|--7-----9--11/12-11--|
|---------------------|x4

THEN PLAY THE RIFF FROM VERSE 1, BUT ONLY x4

CHORUS 2 - SAME

THEN PLAY THE FIRST PART OF VERS 2 (tabbed above)

BIT JUST BEFORE ACOUSTIC PART
|-------------------|
|-------------------|
|-------------------|
|--6-6-6-6-4-4-4-2--|
|--4-4-4-4-2-2-2-0--|
|-------------------|

OUTRO [ACOUSTIC] (sounds like flute or even old skool recorder in the b/g)

|--0-0-0-0-0-0-0-0-0-0-0-0--0--0--0--0--0--0--0-0-0-0-0-0--|
|--0-0-0-0-0-0-0-0-0-0-0-0--0--0--0--0--0--0--0-0-0-0-0-0--|
|--9-9-9-9-9-9-9-9-9-9-9-9-11-11-11-11-13-13-13-6-6-6-6-6--|
|--9-9-9-9-9-9-9-9-9-9-9-9-11-11-11-11-13-13-13-7-7-7-7-7--|
|--7-7-7-7-7-7-7-7-7-7-7-7--9--9--9--9-11-11-11-7-7-7-7-7--|
|--0-0-0-0-0-0-0-0-0-0-0-0----------------------5-5-5-5-5--|x4

Originally tabbed by al@onedollarshort.zzn.com
comments
We did not receive enough feedback on this tab! Please rate:
print report bad tab
1 2 3 4 5
I want to post or [tab]
guest
You may want to rate the tab now too:
select rating
Please do not post tabs as comments. Select "correction" instead!