Oops, an error
Loading. Please wait.

Pollyanna Tab

version 1
version 1

Whole song

1,761 views 1 this week
no commentswrite comment
1 2 3 4 5
1 last vote to show rating
add to favorites
launch autoscroll
font size
0
reset
how to read this tab
guitar tuner
Autoscroll
slow
fast
+/-
esc
set tempo
stop
Help us to improve Ultimate-Guitar.com Take our survey!
×
Intro:

e----------------------------------------------------------]
b----------------------------------------------------------]
g-4x4x4--------6h8h6h8-4-6-6h8h6-4-6h8h6h8-4-6-6h8h6-6666--]
d-4x4x4----------------------------------------------------]repeat
a-2x2x2----------------------------------------------------]
d----------------------------------------------------------]
  . . .P.m.

VERSE: "So this is how it ends..."

e------------------------------------------------]
b------------------------------------------------]
g--44444444--------------------------------------]
d--44444444--66666666--222222222-----------------]
a--22222222--66666666--222222222-----------------]
d------------66666666--222222222-----------------]
   ........  ........  .........

"she said..."                
e----------------------------]
b----------------------------]
g----8--8-8----8---8-8-------]
d--9--9------9---9-----------]
a----------------------------]
d----------------------------]

Pre chorus: "Shes got..."
e----------------------------------------]
b----------------------------------------]
g---------66-44----------66--------------]
d--66xxx--44-22--66xxx---66-22-----------]
a--66xxx--44-22--66xxx---44-22-----------]
d--66xxx---------66xxx------22-----------]


chorus: " You look so lovely..."

e--------------------------------------------]
b--------------------------------------------]
g------------------444444--------------------]
d--666666--444444--444444---222222-----------]
a--666666--444444--222222---222222-----------]
d--666666--444444-----------222222-----------]


interlude:

e----------------------------------------------------]
b----------------------------------------------------]
g--------6h8h6h8-4-6-6h8h6-4-6h8h6h8-4-6-6h8h6-6666--]
d----------------------------------------------------]
a----------------------------------------------------]
d----------------------------------------------------]

verse2
chorus

BRIDGE:"and i will chase it..."

e-----------------]
b-----------------]
g---------4~------]
d---6~-4~-4~-2~---]
a---6~-4~-2~-2~---]
d---6~-4~----2~---] 

chorus till end

okay there ya go...another tab of northstar i also did for members only so check
that out. any questions entirely_smooth_chick@hotmail.com
this is pretty close if it isn't exactly right.
Suggest correction
Give kudos to tab author, rate the tab!
1 2 3 4 5
comments
print report bad tab
guest
You may want to rate the tab now too:
select rating
Wanna post a correction for this tab? Suggest correction