Oops, an error
Loading. Please wait.

Rigged Ready Tab

2,330 views 9 this week
3 commentsread comments
1 2 3 4 5
excellent!
x 3
add to favorites
launch autoscroll
font size
0
reset
how to read this tab
guitar tuner
Tab Pro tools
  • play this tab
  • loop segment
  • change instrument
  • show fretboard
  • metronome
Autoscroll
slow
fast
+/-
esc
set tempo
stop
Artist: Northstar
Title: Rigged And Ready
Album: Is This Thing Loaded?

I found this tab on another website and though I would add it because I think it's 
and it's the full version.

INTRO: guitar 1, 4x clean                          4th time strum this last chord
e|---------------------------------------------------------------------------|
B|---------------------------------------------------------------------------|
G|--------------------------------------7------------------------------------|
D|------0-2-----2-4-----4-------4-----7---7-----7-------7---7---7-------7----|
A|----0-------0-----2-2---2-0-0---0-5---------5---5---5---5---5---5---5---5--|
D|--0-------0-------------------------------5-------5-------5-------5--------|
Guitar 2, come in a little later
1st and 3rd times               2nd time                    4th time
|---------------------------------|-------------------------------|-----------------|
|---------------------------------|-------------------------------|-----------------|
|---------------------------------|-------------------------------|-----------------|
|--0>--4h7-4p2-4p2-0h2-4h7-4p2-0--|--0>--4h7-4p2-4p2-0h2-4h7-4h7--|--0>--4h7-4p2-0--|
|--0>-----------------------------|--0>---------------------------|--0>-------------|
|--0>-----------------------------|--0>---------------------------|--0>-------------|

VERSE 1
It�s winter...:g1 clean    g2 clean, distortion on the last �7-4�
|------------|-------|----------------------|
|--5-5--7-7--|--5----|----------------------|
|--7-7--7-7--|----7--|----------------------|
|--7-7--7-7--|-------|--4-7--7-4--7-4--7-4--|
|------------|-------|----------------------|
|------------|-------|----------------------|
  . . . .

I never fixed...: g1 2x                      g2 comes in second time
|--------------------------------------|------------------------------------------|
|--------------------------------------|--15-14-----15-14--------14-15-----14-----|
|--4-4-4444-2-2-2222-7-7-7777----------|--------14--------14--16--------16----14--|
|--4-4-4444-2-2-2222-7-7-7777-5-5--55--|------------------------------------------|
|--2-2-2222-0-0-0000-5-5-5555-5-5--55--|------------------------------------------|
|-----------------------------5-5--55--|------------------------------------------|

I wish I was...: both guitars 2x
|---------------------------------------------------|
|---------------------------------------------------|
|--444-4-444-4-222-2-222-2-777-7-777-7--------------| continue to next line
|--444-4-444-4-222-2-222-2-777-7-777-7-555-5-555-5--|
|--222-2-222-2-000-0-000-0-555-5-555-5-555-5-555-5--|
|--------------------------------------555-5-555-5--|
   ...   ...   ...   ...   ...   ...   ...   ...
guitar 1 & 2                           guitar 1
|------------------------------------|-----------------------------------------------------------|
|------------------------------------|-----------------------------------------------------------|
|--444-4--222------------------------|--4-4-4-4-4-4-444-2-22-22----------------------------------|
|--444-4--222-2-4-2-5-5-55-5-55-555--|--4-4-4-4-4-4-444-2-22-22-55-444-55-5555-44-444-7-77-7777--|
|--222-2--000-------5-5-55-5-55-555--|--2-2-2-2-2-2-222-0-00-00-55-555-55-5555-55-555-5-55-5555--|
|-------------------5-5-55-5-55-555--|--------------------------55-555-55-5555-55-555-5-55-5555--|
   ...    ...                                                             ....    ...      ....
 guitar 2 lick at end
|------------------------------------|
|------------------------------------|
|--16h14----14�11h14-11-------|
|--------16-------------12-----------|
|------------------------------------|
|------------------------------------|
                                           first 3x
Birthmark...: 4x                           ending     last time ending
|-----------------------------------------|-----------|------------------------------------|
|-----------------------------------------|-----------|------------------------------------|
|--77-7-77-77-2-2222-2--44-4-44-44-2-2222-|-----------|---------------------------------2--|
|--77-7-77-77-2-2222--4-44-4-44-44-2-2222-|--2h4-2p0--|--5-5-5-5-5-5-5-5-5-5-5-5-5-5-5--2--|
|--55-5-55-55-0-0000----22-2-22-22-0-0000-|-----------|--5-5-5-5-5-5-5-5-5-5-5-5-5-5-5--0--|
|-----------------------------------------|-----------|--5-5-5-5-5-5-5-5-5-5-5-5-5-5-5-----|
  ..   ..  .   ....    ..   ..  .   ....

CHORUS: 4x, first 3x both guitars                                    guitar 2 lick           end
|-------------------------------------------------------------------|----------------------|---------|
|-------------------------------------------------------------------|--15-14---------------|---------|
|--4-4-4-4-4-4-4-4-2-2-2-2-2-2-2-2-----------------2-2-2-2-2-2-2-2--|--------14--4-2-------|-----22--|
|--4-4-4-4-4-4-4-4-2-2-2-2-2-2-2-2-5-5-5-5-5-5-5-5-2-2-2-2-2-2-2-2--|----------------4-2-0-|--0--22--|
|--2-2-2-2-2-2-2-2-0-0-0-0-0-0-0-0-5-5-5-5-5-5-5-5-0-0-0-0-0-0-0-0--|----------------------|--0--00--|
|----------------------------------5-5-5-5-5-5-5-5------------------|----------------------|--0------|

VERSE 2: REPEAT VERSE 1

Dodging broken...: 2x, ( ): guitar 1                 end      ( ): guitar 1, 4x     guitar 2, 3x
|---------------------------------------------|---------|-----------------------------------------|
|---------------------------------------------|---------|-----------------------------------------|
|--(44)-----------------(77)------------------|--7p6----|--(44-xx44)--44-22-----(77-xx77)--7p6----|
|--(44)-4-4-4-4-4-4-2-2-(77)-7-7-7-7-7-7-2-2--|------7--|--(44-xx44)--------44--(77-xx77)------7--|
|--(22)-2-2-2-2-2-2-0-0-(55)-5-5-5-5-5-5-0-0--|---------|--(22-xx22)------------(55-xx55)---------|
|---------------------------------------------|---------|-----------------------------------------|
       . . . . . . . .      . . . . . . . .
  guitar 2 4th time
|------------------------|
|------------------------|
|--44-22----22-----------|
|--------44----44-22-0>--|
|------------------------|
|------------------------|

END RIFF: guitar 1 play chorus through
Guitar 2 riff first 2x, last 2x play chorus
|-------------------------------------|
|-------------------------------------|
|-------------------------------------|
|--0h2-0h4-0h2-0h4-0h7-0h4-0h2h4p2p0--|
|-------------------------------------|
|-------------------------------------|
comments
We did not receive enough feedback on this tab! Please rate:
print report bad tab
1 2 3 4 5
3 comments total.
0 reply
jamesromios wrote on April 27 2006, 05:41 pm

ok, yours definitely beats mine.

0 reply
batesyy wrote on November 29 2006, 03:27 am

Quote:
[04/27/2006 - 05:41 pm] by jamesromios : |
ok, yours definitely beats mine.


PWNT!

0 reply
AFireInside198x wrote on December 25 2006, 08:48 pm

Haha thanks... I forgot I posted this tab while I was in school soooo long ago. Too bad Northstar is done...

I want to post or [tab]
guest
You may want to rate the tab now too:
select rating
Please do not post tabs as comments. Select "correction" instead!