Oops, an error
Loading. Please wait.

Solo Una Vez bass

version 1
version 1

Whole song

Interactive

by Nose
145 views 3 this week
no commentswrite comment
1 2 3 4 5
3 more votes to show rating
add to favorites
×
Save as Personal and add changes to this tab that will be seen only by you. Learn more ›
×
You can save this tab as Personal to edit and correct it or add notes. All changes will be seen only by you. Learn more »
launch autoscroll
font size
0
reset
guitar tuner
edit
Autoscroll
slow
fast
+/-
esc
set tempo
stop
EN LA INTRO EL BAJO ENTRA EN EL SEGUNDO 00:16

INTRO

G|--------------------------------------------|
D|--------------------------------------------|
A|--5555555554---------42222222222------------| (X2)
E|------------555555555-----------3333333333--|


BUENO EL VERSO ES LO MISMO QUE LA INTRO SOLO QUE LA NOTA
FINAL SUBE DE TONO

VERSO

G|--------------------------------------------|
D|--------------------------------------------|
A|--5555555554---------42222222222------------|
E|------------555555555-----------3333333333--|

G|--------------------------------------------|
D|--------------------------------5555555555--|
A|--5555555554---------42222222222------------|
E|------------555555555-----------------------|


Y BUENO AHORA EL CORO, ES COMPLICADO TOCAR Y CANTARLO A LA VEZ
ASÍ QUE REQUIERE DE PRACTICA. EL CORO PARTE EN EL 00:48

CORO

G|--------------------------------------------|
D|--------------------------------------------|
A|--5555555555------9757------9757------------|
E|------------555555----777777----3333333333--|

G|--------------------------------------------|
D|--------------------------------5555555555--|
A|--5555555555------9757------9757------------|
E|------------555555----777777----------------|


EL INTERLUDIO PARTE EN EL MINUTO 02:12 Y ES MAS O MENOS ASÍ :)

INTERLUDIO

G|----------------------------------------|
D|---77-----------------------------------|
A|--5----------77--------99--------55-----| (X2)
E|------------5---------7---------3-------|


Y BUENO EL CORO FINAL ES IGUAL, SOLO QUE CON UN CORTE AL EMPEZAR

G|--------------------------------------------|
D|--------------------------------------------|
A|--5~--------------9757------9757------------|
E|------------555555----777777----3333333333--|

G|--------------------------------------------|
D|--------------------------------5555555555--|
A|--5555555555------9757------9757------------|
E|------------555555----777777----------------|


BUENO Y LA CANCIÓN TERMINA CON EL BAJO SONANDO SOLO EN EL MINUTO 03:04
Y ES ASÍ:

FINAL

G|---------------|
D|---45/75-------|
A|--5-----5/75---|
E|---------------|

SALUDOS

            
            
Suggest correction
Creating personal tab
Creating personal tab
You can edit any tab online and save it as your Personal.

You can edit, replace or remove any tab part or add personal notes – all changes will be seen only by you.

Personal tabs can be accessed anytime from any device, even offline.
Learn more »
Give kudos to tab author, rate the tab!
1 2 3 4 5
comments
print report bad tab
guest
Wanna post a correction for this tab? Suggest correction