Oops, an error
Loading. Please wait.

Waiting Bass Tab

294 views 1 this week
no commentswrite comment
1 2 3 4 5
please rate
add to favorites
launch autoscroll
font size
0
reset
guitar tuner
Autoscroll
slow
fast
+/-
esc
set tempo
stop
Help us to improve Ultimate-Guitar.com Take our survey!
×
Author
Tuning
C# G# C# F# A# D#
-----------------------------------------------------------------------------
                             Waiting - Not Forgotten
-----------------------------------------------------------------------------

Tabbed By : Blkblkblk50. Special thanks to Larry Petway for covering on YouTube.

Tuning: C#G#C#F#

Intro (If you can't alternate pick the 5 to 7s, just tap the 7s)
G|--------------------------------------------------------------------------|
D|--------------------------------------------------------------------------|
A|----------5--5------------------------------------------------------------|
E|-08p70h5h7-h7-h7p5--08p70h5h788887--------------------------------------|x2

0:08 (Open up my eyes...)
G|--------------------------------------------------------------------------|
D|--------------------------------------------------------------------------|
A|555555555555555555777888------------------888777--------------------------|
E|------------------------888888888888888888------555555555555555555555555--|

0:20 (Time. Now I know you'll...)
G|--------------------------------------------------------------------------|
D|--------------------------------------------------------------------------|
A|------------------888777--------------------------------------------------|
E|888888888888888888--------------------------------------------------------|

0:24 (See...This side of you...)
G|--------------------------------------------------------------------------|
D|--------------------------------------------------------------------------|
A|--------------------------------------------------------------------------|
E|00-0-000-0-000-0-000-0-088-8-888-8-888-8-8-888-8-855-5-555-5-555-5-555-5-5|

0:35 (Long way down...) (tens not ones and zeros)
G|--------------------------------------------------------------------------|
D|--------------------------------------------------------------------------|
A|--------------------------------------------------------------------------|
E|888888888888-101010101010101010101010-------------------------------------|

0:39 (WHY!?)
G|--------------------------------------------------------------------------|
D|--------------------------------------------------------------------------|
A|--------------------------------------------------------------------------|
E|888888888888888888-101010101010-000000000000-101010101010101010101010---|x2

0:53 (Afraid. Has all our time...)
G|--------------------------------------------------------------------------|
D|--------------------------------------------------------------------------|
A|--------------------------------------------------------------------------|
E|888888888888888888-101010101010-------------------------------------------|

0:57 (WASTED!)
G|--------------------------------------------------------------------------|
D|--------------------------------------------------------------------------|
A|----------5--5------------------------------------------------------------|
E|-08p70h5h7-h7-h7p5--08p70h5h788887--------------------------------------|x2

1:04 (sinking with each step.)
G|--------------------------------------------------------------------------|
D|--------------------------------------------------------------------------|
A|555555555555555555777888------------------888777--------------------------|
E|------------------------888888888888888888------555555555555555555555555--|

1:15 (In this game we've played for...)
G|--------------------------------------------------------------------------|
D|--------------------------------------------------------------------------|
A|------------------888777--------------------------------------------------|
E|888888888888888888--------------------------------------------------------|

1:19 (long...My instincts...)
G|--------------------------------------------------------------------------|
D|--------------------------------------------------------------------------|
A|--------------------------------------------------------------------------|
E|00-0-000-0-000-0-000-0-088-8-888-8-888-8-8-888-8-855-5-555-5-555-5-555-5-5|

1:30 (Run away from...)
G|--------------------------------------------------------------------------|
D|--------------------------------------------------------------------------|
A|--------------------------------------------------------------------------|
E|888888888888-101010101010101010101010-------------------------------------|

1:34 (WHY!?)
G|--------------------------------------------------------------------------|
D|--------------------------------------------------------------------------|
A|--------------------------------------------------------------------------|
E|888888888888888888-101010101010-000000000000-101010101010101010101010---|x4

1:56 (Blame. Don't shut me out.)
G|--------------------------------------------------------------------------|
D|--------------------------------------------------------------------------|
A|--------------------------------------------------------------------------|
E|888888888888888888-101010101010-12\SUPER SLOW SLIDE THAT LASTS FOR 4 BEATS|


2:04
G|--------------------------------------------------------------------------|
D|--------------------------------------------------------------------------|
A|--------------------------------------------------------------------------|
E|-0---0---0---0------------------------------------------------------------|

2:08 (Don't shut me...)
G|--------------------------------------------------------------------------|
D|--------------------------------------------------------------------------|
A|-----88888-----88888------88888-------------------------------------------|
E|0-00-------0-00------0-00-------3-33-8-88---------------------------------|

2:15 (Kay...I'll take this...)
G|--------------------------------------------------------------------------|
D|--------------------------------------------------------------------------|
A|-----88888-----88888------88888-------------------------------------------|
E|0-00-------0-00------0-00-------3-33--------------------------------------|

2:26 (Waited...never seems to...)
G|--------------------------------------------------------------------------|
D|--------------------------------------------------------------------------|
A|--------------------------------------------------------------------------|
E|000000000000-101010101010101010101010-------------------------------------|

2:30 (Change...Your mind...)
G|--------------------------------------------------------------------------|
D|--------------------------------------------------------------------------|
A|--------------------------------------------------------------------------|
E|888888888888888888-101010101010-000000000000-101010101010101010101010-----|

2:37 (Afraid. WHY!?) (Those are twelves not ones and twos)
G|--------------------------------------------------------------------------|
D|--------------------------------------------------------------------------|
A|--------------------------------------------------------------------------|
E|888888888888888888-101010101010-121212121212121212121212-10(x12)----------|

2:45 (Blame. Don't shut me...)
G|--------------------------------------------------------------------------|
D|--------------------------------------------------------------------------|
A|--------------------------------------------------------------------------|
E|888888888888888888-101010101010-------------------------------------------|

2:48 (OUT!)
G|--------------------------------------------------------------------------|
D|--------------------------------------------------------------------------|
A|----------5--5------------------------------------------------------------|
E|-08p70h5h7-h7-h7p5--08p70h5h788887--------------------------------------|x4

| /  slide up
| \  slide down
| h  hammer-on
| p  pull-off
| ~  vibrato
| +  harmonic
| x  Mute note

Thanks for reading and Enjoy.
=============================================================================
Suggest correction
Give kudos to tab author, rate the tab!
1 2 3 4 5
comments
print report bad tab
guest
You may want to rate the tab now too:
select rating
Wanna post a correction for this tab? Suggest correction