Oops, an error
Loading. Please wait.

Amsterdam tab

5,059 views 393 this week
no commentswrite comment
1 2 3 4 5
x 5
add to favorites
×
Save as Personal and add changes to this tab that will be seen only by you. Learn more ›
×
You can save this tab as Personal to edit and correct it or add notes. All changes will be seen only by you. Learn more »
launch autoscroll
font size
0
reset
how to read this tab
guitar tuner
edit
Autoscroll
slow
fast
+/-
esc
set tempo
stop
You can play this song in normal tuning playing 1 fret down but then u need to replace E chord which is in the
bridge with power chord at 6 fret. In my opinion originally it is played in Eb (As evidence you can see in
official video he's playing E chord in the bridge [3:02])

[Intro]
D#|--------------------|
A#|--------------------|
F#|-----------4--------|
C#|-------4--6-6--4----| x6
G#|-2-2--6-6-----6-6---|
D#|--------------------|

[Chorus]
D#|------------------------------------------------------|        |
A#|------------------------------------------------------|        |
F#|-9-9--9-9-9--9-9-9--9-9-9--9-9-9--9-9-9--9-9-9--9-9-9-|        |
C#|-9-9--9-9-9--9-9-9--9-9-9--9-9-9--9-9-9--9-9-9--9-9-9-|        |
G#|-7-7--7-7-7--7-7-7--7-7-7--7-7-7--7-7-7--7-7-7--7-7-7-|        |
D#|------------------------------------------------------|        |
                                                                  | x2
D#|----------------------------------------------------------|    |
A#|----------------------------------------------------------|    |
F#|----------------------------------------------------------|    |
C#|-4/6-6--4/6-6--4/6-6--4/6-6--4/6-6--4/6-6--6/9-9--9/11-11-|    |
G#|-4/6-6--4/6-6--4/6-6--4/6-6--4/6-6--4/6-6--6/9-9--9/11-11-|    |
D#|-2/4-4--2/4-4--2/4-4--2/4-4--2/4-4--2/4-4--4/7-7--7/9--9--|    |

[Verse]
D#|--------------------|
A#|--------------------|
F#|-----------4--------|
C#|-------4--6-6--4----| x4
G#|-2-2--6-6-----6-6---|
D#|--------------------|

[Chorus]
D#|------------------------------------------------------|        |
A#|------------------------------------------------------|        |
F#|-9-9--9-9-9--9-9-9--9-9-9--9-9-9--9-9-9--9-9-9--9-9-9-|        |
C#|-9-9--9-9-9--9-9-9--9-9-9--9-9-9--9-9-9--9-9-9--9-9-9-|        |
G#|-7-7--7-7-7--7-7-7--7-7-7--7-7-7--7-7-7--7-7-7--7-7-7-|        |
D#|------------------------------------------------------|        |
                                                                  | x2
D#|----------------------------------------------------------|    |
A#|----------------------------------------------------------|    |
F#|----------------------------------------------------------|    |
C#|-4/6-6--4/6-6--4/6-6--4/6-6--4/6-6--4/6-6--6/9-9--9/11-11-|    |
G#|-4/6-6--4/6-6--4/6-6--4/6-6--4/6-6--4/6-6--6/9-9--9/11-11-|    |
D#|-2/4-4--2/4-4--2/4-4--2/4-4--2/4-4--2/4-4--4/7-7--7/9--9--|    |

[Verse]
D#|-----------------------------------------------------------|
A#|-----------------------------------------------------------|
F#|-----------------------------------------------------------|
C#|-6-6--6-6-6--6/8-8--8-8-8--8/9-9--9-9-9--9/11-11--11-11-11-| x2
G#|-6-6--6-6-6--6/8-8--8-8-8--8/9-9--9-9-9--9/11-11--11-11-11-|
D#|-4-4--4-4-4--4/6-6--6-6-6--6/7-7--7-7-7--7/9--9---9--9--9--|

[Bridge]
D#|---------|
A#|---------|
F#|-1-------|
C#|-2-------| x5 (I guess)
G#|-2-------|
D#|----4--2-|

[Chorus]
D#|-------------------------------------------------------------| (In the last chorus hit power chord at
A#|-------------------------------------------------------------|  7 fret only once and then play normal
F#|-9-----------------------------------------------------------|  chorus. If you don't get it listen to
C#|-9--4/6-6--4/6-6--4/6-6--4/6-6--4/6-6--4/6-6--6/9-9--9/11-11-|  song)
G#|-7--4/6-6--4/6-6--4/6-6--4/6-6--4/6-6--4/6-6--6/9-9--9/11-11-|
D#|----2/4-4--2/4-4--2/4-4--2/4-4--2/4-4--2/4-4--4/7-7--7/9-9---|

[Outro]
D#|------------------------------------------------------|        |  (Outro is the same as the chorus)
A#|------------------------------------------------------|        |
F#|-9-9--9-9-9--9-9-9--9-9-9--9-9-9--9-9-9--9-9-9--9-9-9-|        |
C#|-9-9--9-9-9--9-9-9--9-9-9--9-9-9--9-9-9--9-9-9--9-9-9-|        |
G#|-7-7--7-7-7--7-7-7--7-7-7--7-7-7--7-7-7--7-7-7--7-7-7-|        |
D#|------------------------------------------------------|        |
                                                                  | x3
D#|----------------------------------------------------------|    |
A#|----------------------------------------------------------|    |
F#|----------------------------------------------------------|    |
C#|-4/6-6--4/6-6--4/6-6--4/6-6--4/6-6--4/6-6--6/9-9--9/11-11-|    |
G#|-4/6-6--4/6-6--4/6-6--4/6-6--4/6-6--4/6-6--6/9-9--9/11-11-|    |
D#|-2/4-4--2/4-4--2/4-4--2/4-4--2/4-4--2/4-4--4/7-7--7/9--9--|    |



************************************

| /  Slide up

************************************
Suggest correction
Creating personal tab
Creating personal tab
You can edit any tab online and save it as your Personal.

You can edit, replace or remove any tab part or add personal notes – all changes will be seen only by you.

Personal tabs can be accessed anytime from any device, even offline.
Learn more »
comments
print report bad tab
guest
You may want to rate the tab now too:
select rating
Wanna post a correction for this tab? Suggest correction