Oops, an error
Loading. Please wait.

Hanging tab

version 1
version 1

Whole song

1,024 views 24 this week
no commentswrite comment
1 2 3 4 5
x 6
add to favorites
×
Save as Personal and add changes to this tab that will be seen only by you. Learn more ›
×
You can save this tab as Personal to edit and correct it or add notes. All changes will be seen only by you. Learn more »
launch autoscroll
font size
0
reset
how to read this tab
guitar tuner
edit
Autoscroll
slow
fast
+/-
esc
set tempo
stop
Author
Difficulty
Standard Tuning 

[Verse 1]
(Drums and bass)
e|-------------------------|-----------------------------|
B|-------------------------|-----------------------------|
G|-------------------------|-----------------------------|
D|--3-3--x--x--3/6-6--x--x-|-6/8-8--x--x-x--x-x-8-8-8-8--|
A|--3-3--x--x--3/6-6--x--x-|-6/8-8--x--x-x--x-x-8-8-8-8--|
E|--1-1--x--x--1/4-4--x--x-|-4/6-6--x--x-x--x-x-6-6-6-6--|

(Drums and bass)
e|-------------------------|-----------------------------|
B|-------------------------|-----------------------------|
G|-------------------------|-----------------------------|
D|--3-3--x--x--3/6-6--x--x-|-6/8-8--x--x-x--x-x-8-8-8-8--|
A|--3-3--x--x--3/6-6--x--x-|-6/8-8--x--x-x--x-x-8-8-8-8--|
E|--1-1--x--x--1/4-4--x--x-|-4/6-6--x--x-x--x-x-6-6-6-6--|

[Chorus]
e|--------------------------------|--------------------------------|
B|--------------------------------|--------4-4-4-------------------|
G|--2-2-2--8-8-8--3-3-3-3-3-3-3-3-|-2-2-2--5-5-5--3-3-3-3-3-3-3-3--|
D|--3-3-3--8-8-8--3-3-3-3-3-3-3-3-|-3-3-3--5-5-5--3-3-3-3-3-3-3-3--|
A|--3-3-3--6-6-6--1-1-1-1-1-1-1-1-|-3-3-3--3-3-3--1-1-1-1-1-1-1-1--|
E|--1-1-1-------------------------|-1-1-1--------------------------| (2x)

[Post-Chorus]
e|-------------------------|-----------------------------|
B|-------------------------|-----------------------------|
G|-------------------------|-----------------------------|
D|--3-3--x--x--3/6-6--x--x-|-6/8-8--x--x-x--x-x-8-8-8-8--|
A|--3-3--x--x--3/6-6--x--x-|-6/8-8--x--x-x--x-x-8-8-8-8--|
E|--1-1--x--x--1/4-4--x--x-|-4/6-6--x--x-x--x-x-6-6-6-6--|

[Post-Chorus Lead part]
I'm not sure about this next lead part, I guess its something like this: 
e|----------------------------------|---------------------------------------|
B|----------------------------------|---------------------------------------|
G|-------3-3-3-3b-------------------|---------------------------------------|
D|---------------------1-1-1-1/3~---|--18-18-18-18-18-18-18-18-18-18-18-18--|
A|----------------------------------|---------------------------------------|
E|----------------------------------|---------------------------------------|

[Verse 2]
(Drums and bass)
e|-------------------------|-----------------------------|
B|-------------------------|-----------------------------|
G|-------------------------|-----------------------------|
D|--3-3--x--x--3/6-6--x--x-|-6/8-8--x--x-x--x-x-8-8-8-8--|
A|--3-3--x--x--3/6-6--x--x-|-6/8-8--x--x-x--x-x-8-8-8-8--|
E|--1-1--x--x--1/4-4--x--x-|-4/6-6--x--x-x--x-x-6-6-6-6--|

(Drums and bass)
e|-------------------------|-----------------------------|
B|-------------------------|-----------------------------|
G|-------------------------|-----------------------------|
D|--3-3--x--x--3/6-6--x--x-|-6/8-8--x--x-x--x-x-8-8-8-8--|
A|--3-3--x--x--3/6-6--x--x-|-6/8-8--x--x-x--x-x-8-8-8-8--|
E|--1-1--x--x--1/4-4--x--x-|-4/6-6--x--x-x--x-x-6-6-6-6--|

[Chorus]
e|--------------------------------|--------------------------------|
B|--------------------------------|--------4-4-4-------------------|
G|--2-2-2--8-8-8--3-3-3-3-3-3-3-3-|-2-2-2--5-5-5--3-3-3-3-3-3-3-3--|
D|--3-3-3--8-8-8--3-3-3-3-3-3-3-3-|-3-3-3--5-5-5--3-3-3-3-3-3-3-3--|
A|--3-3-3--6-6-6--1-1-1-1-1-1-1-1-|-3-3-3--3-3-3--1-1-1-1-1-1-1-1--|
E|--1-1-1-------------------------|-1-1-1--------------------------| (2x)

[Solo]
e|-------------------------------|------------------------------------|
B|-------------------------------|------------------------------------|
G|-------------------------------|--3p0-3p0-5p0-3p0----/10p8----------|
D|-----------/10-9----/9-8-------|----------------------------10------|
A|-------------------------------|------------------------------------|
E|-------------------------------|------------------------------------|

e|-------------------------------|-----------------------------------------------|
B|-------------------------------|-----------------------------------------------|
G|-------------------------------|--14b-14b-14b-14b--14------10b12r10--8b10r8----|
D|-----------/10-10----10-10-----|-----------------------15----------------------|
A|-------------------------------|-----------------------------------------------|
E|-------------------------------|-----------------------------------------------|

e|-----------------------------|-----------------------------------|
B|-----------------------------|-----------------------------------|
G|---------------10b12r10------|--3p0-3p0-5p0-3p0----/10p8---------|
D|--------/10-9------------9-8-|---------------------------10------|
A|-----------------------------|-----------------------------------|
E|-----------------------------|-----------------------------------|

e|--------------------15--------|----15-----------18---------|
B|--/13~-13~-13~-13~-----16-13--|-------16-13----------------|
G|------------------------------|----------------------------|
D|------------------------------|----------------------------|
A|------------------------------|----------------------------|
E|------------------------------|----------------------------|

e|--------------------15--------|----15-----------13---------|
B|--/13~-13~-13~-13~-----16-13--|-------16-13----------------|
G|------------------------------|----------------------------|
D|------------------------------|----------------------------|
A|------------------------------|----------------------------|
E|------------------------------|----------------------------|

[Break]
(Clean played)
e|-------------------6--------------|-----------------4--------6------------------|
B|-------9-------------6------------|-------------------4--------6----------------|
G|---------10-----------------7---7-|----3----3-----------------------------------|
D|----10-----------8----------------|----3----3-------------------------6--6-6----|
A|--8------------6---------5----5---|-1----1-------6--------8---------6----6-6----|
E|----------------------------------|------------4--------6---------4-------------|

[Chorus]
e|--------------------------------|--------------------------------|
B|--------------------------------|--------4-4-4-------------------|
G|--2-2-2--8-8-8--3-3-3-3-3-3-3-3-|-2-2-2--5-5-5--3-3-3-3-3-3-3-3--|
D|--3-3-3--8-8-8--3-3-3-3-3-3-3-3-|-3-3-3--5-5-5--3-3-3-3-3-3-3-3--|
A|--3-3-3--6-6-6--1-1-1-1-1-1-1-1-|-3-3-3--3-3-3--1-1-1-1-1-1-1-1--|
E|--1-1-1-------------------------|-1-1-1--------------------------| (2x)

[Outro]
e|------------------------------------------------------|
B|------------------------------------------------------|
G|------------------------------------------------------|
D|--3-3--x--x--3/6-6------------------------------------|
A|--3-3--x--x--3/6-6------------------------------------|
E|--1-1--x--x--1/4-4------------------------------------|


************************************

| x  Dead note
| /  Slide up
| b  Bend
| ~  Vibrato
| p  Pull-off
| r  Release

************************************
Suggest correction
Creating personal tab
Creating personal tab
You can edit any tab online and save it as your Personal.

You can edit, replace or remove any tab part or add personal notes – all changes will be seen only by you.

Personal tabs can be accessed anytime from any device, even offline.
Learn more »
comments
print report bad tab
guest
You may want to rate the tab now too:
select rating
Wanna post a correction for this tab? Suggest correction