Oops, an error
Loading. Please wait.

Hanging Bass Tab

version 2
version 2

Whole song

43 views 15 this week
no commentswrite comment
1 2 3 4 5
3 more votes to show rating
add to favorites
launch autoscroll
font size
0
reset
guitar tuner
Autoscroll
slow
fast
+/-
esc
set tempo
stop
Help us to improve Ultimate-Guitar.com Take our survey!
×
Author
Difficulty
Tabbed by: Asa Wentworth
Email: stroodleman8451@yahoo.com

Song: Hanging
Artist: Nothing but Thieves
Album: Nothing but Thieves (Deluxe Version)
Tuning: Low E is a half-step down to D#

[Intro]

0:00
g|----------------------------------------------------------------------------------| 
d|----------------------------------------------------------------------------------|
a|----------------------------------------------------------------------------------| x2
e|--2--2--2-0-2---5--5--5-7-7-7-7---2--2--2-0-2---5--5--5-5-7-7-7-7-----------------|

[Verse]

0:13
"Blue one..."
g|----------------------------------------------------------------------------------| 
d|----------------------------------------------------------------------------------|
a|----------------------------------------------------------------------------------| x4
e|--2--2--2-0-2---5--5--5-7-7-7-7---2--2--2-0-2---5--5--5-5-7-7-7-7-----------------|

[Pre-Chorus]

0:36
"This place..."
g|---------------------------------------------| 
d|---------------------------------------------|
a|--8-8--8/11-11--11/13-13---------------------|
e|---------------------------------------------|

g|---------------------------------------------| 
d|---------------------------------------------|
a|---------------------------------------------|
e|--2-2--2/5-5--5/7-7--7-7-7-7-----------------|

"Yoo-hoo..."
g|---------------------------------------------| 
d|---------------------------------------------|
a|--8-8--8/11-11--11/13-13\--------------------|
e|---------------------------------------------|

g|---------------------------------------------| 
d|---------------------------------------------|
a|---------------------------------------------|
e|--2-2--2/5-5--5/7-7--7-7-7-7-----------------|

[Chorus]

1:00
"Hanging by a thread..."
g|----------------------------------------------------------------------------------| 
d|----------------------------------------------------------------------------------|
a|------------------1-1-1-1-1-1-1-1---------3-3-3-3-1-1-1-1-1h3h1-1-1-1-------------| x2
e|--2-2-2-2-0-0-0-0-----------------2-2-2-2-----------------------------------------|

g|---------------------------------------------| 
d|---------------------------------------------|
a|---------------------------------------------|
e|--2-2--2/5-5--5/7-7--7-7-7-7\----------------|

[Verse]

1:31
"It's true..."
g|----------------------------------------------------------------------------------| 
d|----------------------------------------------------------------------------------|
a|----------------------------------------------------------------------------------| x4
e|--2--2--2-0-2---5--5--5-7-7-7-7---2--2--2-0-2---5--5--5-5-7-7-7-7-----------------|

[Pre-Chorus]

1:55
"Goodbye..."
g|---------------------------------------------| 
d|---------------------------------------------|
a|--8-8--8/11-11--11/13-13---------------------|
e|---------------------------------------------|

g|---------------------------------------------| 
d|---------------------------------------------|
a|---------------------------------------------|
e|--2-2--2/5-5--5/7-7--7-7-7-7-----------------|

"Yoo-hoo..."
g|---------------------------------------------| 
d|---------------------------------------------|
a|--8-8--8/11-11\--11/13-13\-------------------|
e|---------------------------------------------|

g|---------------------------------------------| 
d|---------------------------------------------|
a|---------------------------------------------|
e|--2-2--2/5-5--5/7-7--7-7-7-7-----------------|


[Chorus]

2:20
"Hanging by a thread..."
g|----------------------------------------------------------------------------------| 
d|----------------------------------------------------------------------------------|
a|------------------1-1-1-1-1-1-1-1---------3-3-3-3-1-1-1-1-1h3h1-1-1-1-------------| x2
e|--2-2-2-2-0-0-0-0-----------------2-2-2-2-----------------------------------------|

[Solo]

2:43
g|---------------------------------------------| 
d|---------------------------------------------|
a|---------------------------------------------| x3
e|--2-2--2/5-5--5/7-7--7-7-7-7-----------------|

g|---------------------------------------------| 
d|---------------------------------------------|
a|---------------------------------------------|
e|--5-5-5-5-4-4-4-4-2-2-2-2-4-2-0-4-2-0-2------|

[Final Chorus]

3:19
"Hanging by a thread..."
g|----------------------------------------------------------------------------------| 
d|----------------------------------------------------------------------------------|
a|------------------1-1-1-1-1-1-1-1---------3-3-3-3-1-1-1-1-1h3h1-1-1-1-------------| x2
e|--2-2-2-2-0-0-0-0-----------------2-2-2-2-----------------------------------------|

End with this
g|-----------------------------| 
d|-----------------------------|
a|-----------------------------|
e|--2-2--2/5-5-----------------|

this is an optional part for the chorus that I play to make it more fun
g|----------------------------------------------------------------------------------| 
d|----------------------------------------------------------------3-----------------|
a|------------------1-1-1-1-1-1-1-1---------3-3-3-3-1-1-1-1-1/3-5---5-3-1-----------|
e|--2-2-2-2-0-0-0-0-----------------2-2-2-2-----------------------------------------|

That's all there is too it. Rate & comment!



************************************

| /  Slide up
| \  Slide down
| h  Hammer-on

************************************
Suggest correction
Give kudos to tab author, rate the tab!
1 2 3 4 5
comments
print report bad tab
guest
You may want to rate the tab now too:
select rating
Wanna post a correction for this tab? Suggest correction