Oops, an error
Loading. Please wait.

Honey Whiskey tab

5,914 views 51 this week
1 commentread comment
1 2 3 4 5
x 4
add to favorites
×
Save as Personal and add changes to this tab that will be seen only by you. Learn more ›
×
You can save this tab as Personal to edit and correct it or add notes. All changes will be seen only by you. Learn more »
launch autoscroll
font size
0
reset
how to read this tab
guitar tuner
edit
Autoscroll
slow
fast
+/-
esc
set tempo
stop
Author
[Verse]
e|-----------------|-----------------|-----------------|-----------------|
B|-----------------|-----------------|-----------------|-----------------|
G|-----------------|-----------------|-----------------|-----------------|
D|-----------------|-----------------|-----------------|-----------------|
A|-----------------|-----------------|-----------------|-----------------|
E|-9-----9-8-----8\|-1-------1-3-4-11|-9-----9-8-----8\|-1-------1-3-4-11|

(last time)
e|-----------------|-----------------|-----------------|----------------------|
B|-----------------|-----------------|-----------------|----------------------|
G|-----------------|-----------------|-----------------|----------------------|
D|-----------------|-----------------|-----------------|----------------------|
A|-----------------|-----------------|-----------------|----------------------|
E|-9-9-9-9-8-8-8-8-|-1-1-1-1-1-3-4-11|-9-9-9-9-8-8-8-8-|-1-1-1-11-11-11-11-11-|

[Chorus]
(strum every chords)
   C#                Fm                D#                C
e|-----------------|-----------------|-----------------|-----------------|
B|-9---------------|-13--------------|-11--------------|-----------------|
G|-10--------------|-13--------------|-12--------------|-----------------|
D|-11--------------|-15--------------|-13--------------|-10--------------|
A|-11--------------|-15--------------|-13--------------|-10--------------|
E|-9---------------|-13--------------|-11--------------|-8---------------|

[Break]
e|-----------------|-----------------|-----------------|-----------------|
B|-----------11-11-|-----------11-11-|-----------11-11-|-----------------|
G|-----------17-17-|-----------17-17-|-----------17-17-|-----------------|
D|-----------------|-----------------|-----------------|-----------------|
A|-----------------|-----------------|-----------------|-----------------|
E|-----------------|-----------------|-----------------|-----------------|

e|-----------------|-----------------|-----------------|-----------------|
B|-----------11-11-|-----------12-12-|-----------11-11-|-----------------|
G|-----------17-17-|-----------18-18-|-----------17-17-|-----------------|
D|-----------------|-----------------|-----------------|-----------------|
A|-----------------|-----------------|-----------------|-----------------|
E|-----------------|-----------------|-----------------|-----------------|

e|-----------------|-----------------|-----------------|-----------------|
B|-----------11-11-|-----------9--9--|-----------11-11-|-----------------|
G|-----------17-17-|-----------15-15-|-----------17-17-|-----------------|
D|-----------------|-----------------|-----------------|-----------------|
A|-----------------|-----------------|-----------------|-----------------|
E|-----------------|-----------------|-----------------|-----------------|

e|-----------------|-----------------|-----------------|-----------------|
B|-----------11-11-|-----------11-11-|-----------------|-----------------|
G|-----------17-17-|-----------17-17-|-----------Drums-|-----------------|
D|-----------------|-----------------|-----------------|-----------------|
A|-----------------|-----------------|-----------------|-----------------|
E|-----------------|-----------------|-----------------|-----------------|


************************************

| \  Slide down

************************************
Suggest correction
Creating personal tab
Creating personal tab
You can edit any tab online and save it as your Personal.

You can edit, replace or remove any tab part or add personal notes – all changes will be seen only by you.

Personal tabs can be accessed anytime from any device, even offline.
Learn more »
comments
print report bad tab
1 comment total.
0 reply
julienpdu76110 10 2 days ago

Great job but I would say the break is more like this (with one measure at the end of each line) ;)
e |-----------|----------|----------
B |-----13-13-|----13-13-|----13-13-
G |-----13-13-|----12-12-|----10-10-
D |-----------|----------|----------
A |-----------|----------|----------
E |-----------|----------|----------

e |-----------|----------|----------
B |-----13-13-|----14-13-|----13-13-
G |-----13-13-|----12-12-|----10-10-
D |-----------|----------|----------
A |-----------|----------|----------
E |-----------|----------|----------

e |-----------|----------|----------
B |-----13-13-|----11-11-|----13-13-
G |-----13-13-|----12-12-|----10-10-
D |-----------|----------|----------
A |-----------|----------|----------
E |-----------|----------|----------

e |-----------|----------|----------
B |-----13-13-|----13-13-|----13-13-
G |-----13-13-|----12-12-|----10-10-
D |-----------|----------|----------
A |-----------|----------|----------
E |-----------|----------|----------

guest
You may want to rate the tab now too:
select rating
Wanna post a correction for this tab? Suggest correction