Oops, an error
Loading. Please wait.

Lover Please Stay Live tab

version 3
version 3

Whole song

  • This tab is a different version from those already... Show more
1,867 views 60 this week
no commentswrite comment
1 2 3 4 5
x 4
add to favorites
×
Save as Personal and add changes to this tab that will be seen only by you. Learn more ›
×
You can save this tab as Personal to edit and correct it or add notes. All changes will be seen only by you. Learn more »
launch autoscroll
font size
0
reset
how to read this tab
guitar tuner
edit
Autoscroll
slow
fast
+/-
esc
set tempo
stop
Difficulty
intermediate
About this tab version
This tab is a different version from those already on the site (it is in standard tuning). It is also tabbed from the live session of the song and should be more or less as accurate as their performance in the linked session.. Was this info helpful? Yes No
Live Session - https://www.youtube.com/watch?v=i1A0G1d8Kzw
 
Tabbed out by ear and by looking at how Dom & Joe plays the guitar in the video.
NB: The note/bar spacing is a little hard to understand and I apologise. The notes should all be more or less 
correct though.


[Intro]
e|-----------|--------|------|---------|
B|-----------|--------|------|---------|
G|-----------|--------|------|---------| (x2)
D|-----6---6-|--6---6-|--6---|-7-6-7-6-|
A|-----------|--------|------|-9-9-9-9-|
E|-9-----9---|----9---|----9-|---------|


[Verses]
Lover...
e|------------|--------|-----------|-------|---------------|----------|---------------|----------|
B|------------|--------|-----------|-------|---------------|----------|---------------|----------|
G|-----10-----|---10-8-|-----6-----|---6---|------11-------|----11----|------11-------|----11----| (x2)
D|-----6----6-|---6--6-|-----8-----|---8---|------13-------|----13----|------10----10-|----10----|
A|------------|--------|---------8-|-------|------------13-|----------|-11------11----|-11----11-|
E|-9------9---|-9-9--8-|-6-----6---|-6---9-|-11------11----|-11----11-|---------------|----------|


[Choruses]
Take from me, what you want...
e|---------------|----------|---------------|----------|------------|--------|-----------|-------|
B|---------------|----------|---------------|----------|------------|--------|-----------|-------|
G|------11-------|----11----|------11-------|----11----|-----10-----|---10-8-|-----6-----|---6---| (x2)
D|------13-------|----13----|------10----10-|----10----|-----6----6-|---6--6-|-----8-----|---8---|
A|------------13-|----------|-11------11----|-11----11-|------------|--------|---------8-|-------|
E|-11------11----|-11----11-|---------------|----------|-9------9---|-9-9--8-|-6-----6---|-6---9-|

[End of Chorus bit]
Lover, please stay...
e|---------------|----------|---------------|----------|
B|---------------|----------|---------------|----------|
G|------11-------|----11----|------11-------|----11----|
D|------13-------|----13----|------10----10-|----10----|
A|------------13-|----------|-11------11----|-11----11-|
E|-11------11----|-11----11-|---------------|----------|


[Pre-Verse for Verse #2]
Me...
e|-----------|--------|------|---------|
B|-----------|--------|------|---------|
G|-----------|--------|------|---------| (x2)
D|-----6---6-|--6---6-|--6---|-7-6-7-6-|
A|-----------|--------|------|-9-9-9-9-|
E|-9-----9---|----9---|----9-|---------|

*There is a bit of an ornamentation somewhere in the second verse. It is played like this:
Your skin...
e|---------------|----------|
B|---------------|----------|
G|------11-------|-13-11-10-|
D|------10----10-|-10-10-10-|
A|-11------11----|-11-------|
E|---------------|----------|

*There is also a different bit leading up to the bridge in the second chorus. It's played like this:
Me...
e|----------|---------|-----------|-------|
B|----------|---------|-----------|-------|
G|-----10---|-----8---|-----6-----|---6---|
D|-----6----|-----6---|-----8-----|---8---|
A|----------|---------|---------8-|-------|
E|-9------9-|-8-----8-|-6-----6---|-6---9-|


[Bridge]
And I can see you...
e|---------------|----------|---------------|----------|----------|---------|-----------|-------|
B|---------------|----------|---------------|----------|----------|---------|-----------|-------|
G|------11-------|----11----|------11-------|----11----|-----10---|-----8---|-----6-----|---6---| (x2)
D|------13-------|----13----|------10----10-|----10----|-----6----|-----6---|-----8-----|---8---|
A|------------13-|----------|-11------11----|-11----11-|----------|---------|---------8-|-------|
E|-11------11----|-11----11-|---------------|----------|-9------9-|-8-----8-|-6-----6---|-6---9-|


[Outro]
Me...
e|-----------|--------|------|---------|
B|-----------|--------|------|---------|
G|-----------|--------|------|---------| (x2)
D|-----6---6-|--6---6-|--6---|-7-6-7-6-|
A|-----------|--------|------|-9-9-9-9-|
E|-9-----9---|----9---|----9-|---------|


[Joe's Guitar]
*This is pretty much how Joe's part goes throughout the entire song.
e|-9-----9-|-----9---|-9-----9-|-8-----8-|
B|---6-----|-6-----6-|---6-----|---6-----|
G|-----8---|---8-----|-----8---|-----8---| 
D|---------|---------|---------|---------|
A|---------|---------|---------|---------|
E|---------|---------|---------|---------|


End.
~ki
Suggest correction
Creating personal tab
Creating personal tab
You can edit any tab online and save it as your Personal.

You can edit, replace or remove any tab part or add personal notes – all changes will be seen only by you.

Personal tabs can be accessed anytime from any device, even offline.
Learn more »
comments
print report bad tab
guest
Wanna post a correction for this tab? Suggest correction