Oops, an error
Loading. Please wait.

Trip Switch bass

version 1
version 1

Whole song

Interactive

3,331 views 39 this week
2 commentsread comments
1 2 3 4 5
x 4
add to favorites
×
Save as Personal and add changes to this tab that will be seen only by you. Learn more ›
×
You can save this tab as Personal to edit and correct it or add notes. All changes will be seen only by you. Learn more »
launch autoscroll
font size
0
reset
guitar tuner
edit
Autoscroll
slow
fast
+/-
esc
set tempo
stop
Author
Difficulty
-------------------------------------------------------------------------------
                             TRIP SWITCH - Nothing But Thieves
-------------------------------------------------------------------------------
Tabbed by: ard73
E-mail: ard73@cornell.edu

Tuning: Standard

Did this by ear, and I feel like I may have oversimplified the chorus, so let 
me know if something sounds off. I would highly suggest listening to the song
to get the timing right.

Verse 1:

G|------------------------------------------------|
D|----------------------------------------1-1-----|
A|-1---1-1--1--1-1--4-4-1---------------------4---| x 5
E|------------------------4---4-4--4--4-4---------|

Chorus:

G|-------------------------------------------------------|
D|-------------------1--1--------------------1-1-1-------|
A|-1--1--4--4--------------1--1--4--4--------------4-4-4-| x 2
E|-------------4--4--------------------4--4--------------|

Verse 2:

G|------------------------------------------------|
D|----------------------------------------1-1-----|
A|-1---1-1--1--1-1--4-4-1---------------------4---| x 3
E|------------------------4---4-4--4--4-4---------|

Chorus:

G|-------------------------------------------------------|
D|-------------------1--1--------------------1-1-1-------|
A|-1--1--4--4--------------1--1--4--4--------------4-4-4-| x 2
E|-------------4--4--------------------4--4--------------|

Bridge:

G|--------------------------------|
D|--------------------------------|
A|-1-1--1--1-1--1--1-1--1--1-1--1-| x 4
E|--------------------------------|

Chorus:

G|-------------------------------------------------------|
D|-------------------1--1--------------------1-1-1-------|
A|-1--1--4--4--------------1--1--4--4--------------4-4-4-| x 4
E|-------------4--4--------------------4--4--------------|


| /  slide up
| \  slide down
| h  hammer-on
| p  pull-off
| ~  vibrato
| +  harmonic
| x  Mute note
===============================================================================

            
            
Suggest correction
Creating personal tab
Creating personal tab
You can edit any tab online and save it as your Personal.

You can edit, replace or remove any tab part or add personal notes – all changes will be seen only by you.

Personal tabs can be accessed anytime from any device, even offline.
Learn more »
comments
print report bad tab
2 comments total.
0 reply
scrazza 10 Feb 06, 2016 03:07 AM

The chorus is completely wrong, but the verse and bridge is correct. Listen to the guitar part and try and base the bass part off that.

0 reply
tbob13 322 Apr 02, 2016 12:33 PM

Chorus is 0% correct. Bridge and verse are good though, but this is overall egregiously wrong ; ; ; ; ;

guest
You may want to rate the tab now too:
select rating
Wanna post a correction for this tab? Suggest correction