Oops, an error
Loading. Please wait.

Trip Switch tab

version 1
version 1

Whole song

Interactive

16,306 views 78 this week
4 commentsread comments
1 2 3 4 5
x 15
add to favorites
×
Save as Personal and add changes to this tab that will be seen only by you. Learn more ›
×
You can save this tab as Personal to edit and correct it or add notes. All changes will be seen only by you. Learn more »
launch autoscroll
font size
0
reset
how to read this tab
guitar tuner
edit
Autoscroll
slow
fast
+/-
esc
set tempo
stop
Author
Difficulty
-------------------------------------------------------------------------------
                        NOTHING BUT THIEVES - Trip Switch
-------------------------------------------------------------------------------
Tabbed by: Gu1tar K1d
E-mail: mussyjunior@hotmail.co.uk

Tuning: Quarter-step down

Main riff:
eb|-------------------------------------------------|
Bb|-------------------------------------------------|
Gb|-------------------------------------------------|
Db|-------------------------------------------------|
Ab|----------5-5------------7-7-5~------------------|
Eb|-7-7-7-7~-----7-5-5-5-5~-------------------------|


[Pre-chorus:]
eb|-12pb14-12-12-12-12-12-12rb-12-10-9-9-9-10-9-7---|
Bb|-------------------------------------------------|
Gb|-------------------------------------------------|
Db|-------------------------------------------------|
Ab|-------------------------------------------------|
Eb|-------------------------------------------------|
   PM-----------------------------------------------|

For this section, start picking with the 12 pre-bent to 14 and then slowly release until the rb.


[Chorus:]
eb|-------------------------------------------------|
Bb|-8-8-----------------8-8-------------------------|
Gb|-9-9--7-7--6-6--4-4--9-9--7-7--6-6--4-4-4--4-4-4-|
Db|-9-9--9-9--7-7--5-5--9-9--9-9--7-7--5-5-5--5-5-5-|
Ab|-7-7--9-9--7-7--5-5--7-7--9-9--7-7--5-5-5--5-5-5-|
Eb|------7-7--5-5--3-3-------7-7--5-5--3-3-3--3-3-3-|



************************************

| b   Bend
| pb  Pre-bend
| ~   Vibrato

************************************
Suggest correction
Creating personal tab
Creating personal tab
You can edit any tab online and save it as your Personal.

You can edit, replace or remove any tab part or add personal notes – all changes will be seen only by you.

Personal tabs can be accessed anytime from any device, even offline.
Learn more »
comments
print report bad tab
4 comments total. Showing first comments.
+4 reply
jack77 41 Jul 30, 2015 03:29 AM

Excuse my ignorance but why do you need to play it in half step down tuning? Can't you just move everything up one?

0 reply
LackedMushroom0 20 Nov 21, 2015 10:35 AM, edited at 03:40 pm

I clearly hear something like a slow downslide to the next powerchord in the first and second chorus.

Chorus:
eb|-----------------------------------------------|
Bb|-8-8----------------8-8\-----------------------|
Gb|-9-9--7-7--6-6\4-4--9-9\7-7--6-6--4-4-4--4-4-4-|
Db|-9-9--9-9--7-7\5-5--9-9\9-9--7-7--5-5-5--5-5-5-|
Ab|-7-7--9-9--7-7\5-5--7-7\9-9--7-7--5-5-5--5-5-5-|
Eb|------7-7--5-5\3-3------7-7--5-5--3-3-3--3-3-3-|

And in the final chorus I hear that downslide after every chord.

eb|----------------------------------------------|
Bb|-8-8\--------------8-8\-----------------------|
Gb|-9-9\7-7--6-6\4-4--9-9\7-7--6-6--4-4-4--4-4-4-|
Db|-9-9\9-9--7-7\5-5--9-9\9-9--7-7--5-5-5--5-5-5-|
Ab|-7-7\9-9--7-7\5-5--7-7\9-9--7-7--5-5-5--5-5-5-|
Eb|-----7-7--5-5\3-3------7-7--5-5--3-3-3--3-3-3-|

0 reply
rockteacher42 10 Feb 09, 2016 05:45 AM

Also there is a first inversion of the G#M chord in the hook of the chorus. "down, down, down.." etc. First time only.

It isnt just in the bass on the record. Guitar plays it too. Capo 1 in standard tuning would be G/B, etc.

guest
You may want to rate the tab now too:
select rating
Wanna post a correction for this tab? Suggest correction