Oops, an error
Loading. Please wait.

Wake Up Call bass

version 1
version 1

Whole song

4,279 views 45 this week
2 commentsread comments
1 2 3 4 5
x 7
add to favorites
×
Save as Personal and add changes to this tab that will be seen only by you. Learn more ›
×
You can save this tab as Personal to edit and correct it or add notes. All changes will be seen only by you. Learn more »
launch autoscroll
font size
0
reset
guitar tuner
edit
Autoscroll
slow
fast
+/-
esc
set tempo
stop
Wake Up Call - Nothing but Thieves
Tabbed by: Artolan 
E-mail: artolan3@gmail.com
Tuning: EADG

[Intro/Verse]
G|------------------------------------|
D|------------------------------------|
A|12-12-12-12---12-12-12-12---12-12---|
E|------------------------------------| x8
(12 not 1-2)

...Step out, this town...
G|-----------------------------------------------------|
D|-----------------------------------------------------|
A|8-8-8-8---8-8-8-8---8-8---3h5-5-5-5---5-5-5-5---5-5--|
E|-----------------------------------------------------|

G|------------------------------------|
D|------------------------------------|
A|12-12-12-12---12-12-12-12---12-12---|
E|------------------------------------| x4

G|-----------------------------------------------------|
D|-----------------------------------------------------|
A|8-8-8-8---8-8-8-8---8-8---3h5-5-5-5---5-5-5-5---5-5--|
E|-----------------------------------------------------|

G|--------------------------------------------------------------|
D|--------------------------------------------------------------|
A|12-12-12-12---12-12-12-12---12-12---0-0-0-0---0-0-0-0---0-0---|
E|--------------------------------------------------------------|

[Chorus]
G|------------------------------------------------------------------------|
D|------------------------------------------------------------------------|
A|8-8-8-8-8-8-8-8---8-8-8-8-8-8-8-8---3-3-3-3-3-3-3-3---7-7-7-7-7-7-7-7---|
E|------------------------------------------------------------------------|

G|---------------------------------------------------------------------------|
D|---------------------------------------------------------------------------|
A|8-8-8-8-8-8-8-8---8-8-8-8-8-8-8-8---7-7-7-7-7-7-7-7---7-7-7-7-7-7-7-7------|
E|---------------------------------------------------------------------------|

[Pre Verse]
G|------------------------------------------------------|
D|------------------------------------------------------|
A|0-0-0-0---0-0-0-0---0-0---0-0-0-0---0-0-0-0---0-0-----|
E|------------------------------------------------------|

[Verse 2]
G|----------------------------------------------------|
D|----------------------------------------------------|
A|0-0-0-0---0-0-0-0---0-0---0-0-0-0---0-0-0-0---0-0---|
E|----------------------------------------------------|

G|-------------------------------------------------|
D|-------------------------------------------------|
A|0-0-0-0---0-0-0-0---0-0---0-0-0-0--5h7-7\-0-0----|
E|-------------------------------------------------|

G|-------------------------------------------------------------|
D|-------------------------------------------------------------|
A|-------------------------7-7-7-7----0-0-0-0--0-0-0-0---0-0---|
E|1-1-1-1---1-1-1-1---1-1--------------------------------------|

G|---------------------------|
D|---------------------------|
A|--0-0-0-0---0-0-0-0---0-0--|
E|---------------------------|

[Chorus]
G|------------------------------------------------------------------------|
D|------------------------------------------------------------------------|
A|8-8-8-8-8-8-8-8---8-8-8-8-8-8-8-8---3-3-3-3-3-3-3-3---7-7-7-7-7-7-7-7---|
E|------------------------------------------------------------------------|

G|---------------------------------------------------------------------------|
D|---------------------------------------------------------------------------|
A|8-8-8-8-8-8-8-8---8-8-8-8-8-8-8-8---7-7-7-7-7-7-7-7---7-7-7-7-7-7-7-7------|
E|---------------------------------------------------------------------------|

[Bridge]
G|----------------------|
D|----------------------|
A|0-0-0-0-0-0-0-0-------|
E|----------------------| x8

[Guitar solo]
G|---------------------------------------------------------------------------|
D|---------------------------------------------------------------------------|
A|8-8-8-8-8-8-8-8---8-8-8-8-8-8-8-8---7-7-7-7-7-7-7-7---7-7-7-7-7-7-7-7------|
E|---------------------------------------------------------------------------|

G|-------------------------------------------------------------------------|
D|-------------------------------------------------------------------------|
A|8-8-8-8-8-8-8-8---8-8-8-8-8-8-8---7-7-7-7-7-7-7-7--7-7-5-5-3-3-2-2-------|
E|-------------------------------------------------------------------------|

[Chorus]
G|------------------------------------------------------------------------|
D|------------------------------------------------------------------------|
A|8-8-8-8-8-8-8-8---8-8-8-8-8-8-8-8---3-3-3-3-3-3-3-3---7-7-7-7-7-7-7-7---|
E|------------------------------------------------------------------------|

G|---------------------------------------------------------------------------|
D|---------------------------------------------------------------------------|
A|8-8-8-8-8-8-8-8---8-8-8-8-8-8-8-8---7-7-7-7-7-7-7-7---7-7-7-7-7-7-7-7------|
E|---------------------------------------------------------------------------|

[Ending]
G|------------------------------------------------|
D|------------------------------------------------|
A|0-0-0-0---0-0-0-0---0-0---0-0-0-0---0-0-0-0--7\-|
E|------------------------------------------------|

************************************

| h  Hammer-on
| \  Slide down

************************************

            
            
Suggest correction
Creating personal tab
Creating personal tab
You can edit any tab online and save it as your Personal.

You can edit, replace or remove any tab part or add personal notes – all changes will be seen only by you.

Personal tabs can be accessed anytime from any device, even offline.
Learn more »
comments
print report bad tab
2 comments total.
0 reply
Sugao 88 Dec 24, 2015 02:54 AM

Great Tabs! I only found one mistake, it's only x4 the Bridge to the Guitar Solo, not 8! :)

0 reply
deborah.label22 34 May 29, 2016 04:54 AM

Great tab, but quite simplified. Works fine, though!

guest
You may want to rate the tab now too:
select rating
Wanna post a correction for this tab? Suggest correction