Oops, an error
Loading. Please wait.

Wake Up Call bass

version 2
version 2

Whole song

541 views 6 this week
2 commentsread comments
1 2 3 4 5
2 more votes to show rating
add to favorites
×
Save as Personal and add changes to this tab that will be seen only by you. Learn more ›
×
You can save this tab as Personal to edit and correct it or add notes. All changes will be seen only by you. Learn more »
launch autoscroll
font size
0
reset
guitar tuner
edit
Autoscroll
slow
fast
+/-
esc
set tempo
stop
Artist: Nothing But Thieves
Song: Wake Up Call
Part of the song: whole song
Album: Nothing But Thieves

This tab is of the album version of the song. When played live, bassist Phil Blake plays more notes and 
many variations on the riffs of this song. For this version, I used the live video's to watch which frets 
he plays.

In the intro and verses a distortion pedal is being used: the chorus and bridge are without distortion

Tuning:  EADG


[Intro]

G|-----------------------------------|
D|-----------------------------------|
A|-12-12-12-12---12-12-12-12---12-12-| (x4)
E|-----------------------------------|

[Verse - singing starts]

G|-----------------------------------|
D|-----------------------------------|
A|-12-12-12-12---12-12-12-12---12-12-| (x3)
E|-----------------------------------|

G|-----------------------------------|
D|-----------------------------------|
A|-12-12-12-12---12-12-12-12---12\---|
E|-----------------------------------|

(Step out, this town...)

G|-------------------------|-------------------------|
D|-------------------------|-------------------------|
A|-8-8-8-8---8-8-8-8---8-8-|-5-5-5-5---5-5-5-5---5-5-|
E|-------------------------|-------------------------|

G|-------------------------|
D|-------------------------|
A|-------------------------|
E|-5-5-5-5---5-5-5-5---5-5-| (x3)

G|-------------------------|
D|-------------------------|
A|-------------------------|
E|-5-5-5-5---5-5-5-5---5---| 

G|-------------------------|----------------------------|
D|-------------------------|----------------------------|
A|-------------------------|-5-5-5-5---5-5-5-5---/7-/10-|
E|-1-1-1-1---1-1-1-1---1-1-|----------------------------|

G|-----------------------------------|-------------------------|
D|-----------------------------------|-------------------------|
A|-12-12-12-12---12-12-12-12---12-12-|-------------------------|
E|-----------------------------------|-5-5-5-5---5-5-5-5---5---|

[Chorus]
                                     
G|-----------------|-----------------|-----------------|-----------------|
D|-----------------|-----------------|-----------------|-----------------|
A|-8-8-8-8-8-8-8-8-|-8-8-8-8-8-8-8-8-|-----------------|-7-7-7-7-7-7-7-7-|
E|-----------------|-----------------|-8-8-8-8-8-8-7---|-----------------|

G|-----------------|-----------------|-----------------|-----------------|
D|-----------------|-----------------|-----------------|-----------------|
A|-8-8-8-8-8-8-8-8-|-8-8-8-8-8-8-8-8-|-7-7-7-7-7-7-7-7-|-7-7-7-7-7-7-7-7-|
E|-----------------|-----------------|-----------------|-----------------|

[Bridge to verse]

G|-------------------------|-------------------------|
D|-------------------------|-------------------------|
A|-------------------------|-------------------------|
E|-5-5-5-5---5-5-5-5---5-5-|-5-5-5-5---5-5-5-5---5\--|

[Verse]

G|-------------------------|
D|-------------------------|
A|-------------------------|
E|-5-5-5-5---5-5-5-5---5-5-|  (x3)

G|-------------------------|
D|-------------------------|
A|------------------/5-/7--|
E|-5-5-5-5---5-5-----------|

G|-------------------------|-------------------------|
D|-------------------------|-------------------------|
A|-------------------------|-5-5-5------------/7-/10-|
E|-1-1-1-1---1-1-1-1---1-1-|-------------------------|

G|-------------------------|-------------------------|
D|-------------------------|-------------------------|
A|-------------------------|-------------------------|
E|-5-5-5-5---5-5-5-5---5-5-|-5-5-5-5---5-5-5-5---5---|

[Chorus]

G|-----------------|-----------------|-----------------|-----------------|
D|-----------------------------------|-----------------|-----------------|
A|-8-8-8-8-8-8-8-8-|-8-8-8-8-8-8-8-8-|-----------------|-7-7-7-7-7-7-5---|
E|-----------------|-----------------|-8-8-8-8-8-8-7---|-----------------|

G|-----------------|-----------------|-----------------|-----------------|
D|-----------------|-----------------|-----------------|-----------------|
A|-8-8-8-8-8-8-8-8-|-8-8-8-8-8-8-8-8-|-----------------|-7-7-7-7-7-7-7-7-|
E|-----------------|-----------------|-8-8-8-8-8-8-7---|-----------------|

[Bridge]

G|-----------------|
D|-----------------|
A|-----------------|
E|-5-5-5-5-5-5-5-5-|  (x4)

G|-----------------|-----------------|-----------------|-----------------|
D|-----------------|-----------------|-----------------|-----------------|
A|-----------------|-----------------|-7-7-7-7-7-7-7-7-|-7-7-7-7-7-7-7-7-|
E|-1-1-1-1-1-1-1-1-|-1-1-1-1-1-1-1-1-|-----------------|-----------------|

G|-----------------|-----------------|-----------------|-------------------|
D|-----------------|-----------------|-----------------|-------------------|
A|-----------------|-----------------|-7-7-7-7-7-7-7-7-|-7-7-5-5-----10-10-|
E|-1-1-1-1-1-1-1-1-|-1-1-1-1-1-1-1-1-|-----------------|---------8-8-------|

[Chorus] 

G|-----------------|-----------------|-----------------|-----------------|
D|-----------------------------------|-----------------|-----------------|
A|-8-8-8-8-8-8-8-8-|-8-8-8-8-8-8-8-8-|-----------------|-7-7-7-7-7-7-5---|
E|-----------------|-----------------|-8-8-8-8-8-8-7---|-----------------|

G|-----------------|------------------|-----------------|-----------------|
D|-----------------|------------------|-----------------|-----------------|
A|-8-8-8-8-8-8-8-8-|-8-8-8-8-8-8-10---|-----------------|-7-7-7-7-7-7-7-7-|
E|-----------------|------------------|-8-8-8-8-8-8-7---|-----------------|

[Outro]

G|-------------------------|------------------------------------|
D|-------------------------|------------------------------------|
A|-------------------------|-/12-12-12-12---12-12-12-12---12\---|
E|-5-5-5-5---5-5-5-5---5-5-|------------------------------------|


************************************

| /   Slide up
| \   Slide down

************************************
Suggest correction
Creating personal tab
Creating personal tab
You can edit any tab online and save it as your Personal.

You can edit, replace or remove any tab part or add personal notes – all changes will be seen only by you.

Personal tabs can be accessed anytime from any device, even offline.
Learn more »
Give kudos to tab author, rate the tab!
1 2 3 4 5
comments
print report bad tab
2 comments total.
0 reply
Artolan 273 Jun 06, 2016 07:54 AM

You say that in live version he uses more variations of riffs but still have lots of objections to my album version which has to simplier because he plays it in more simple way.

guest
You may want to rate the tab now too:
select rating
Wanna post a correction for this tab? Suggest correction