Oops, an error
Loading. Please wait.

God Went North tab

97 views 9 this week
no commentswrite comment
1 2 3 4 5
3 more votes to show rating
add to favorites
×
Save as Personal and add changes to this tab that will be seen only by you. Learn more ›
×
You can save this tab as Personal to edit and correct it or add notes. All changes will be seen only by you. Learn more »
launch autoscroll
font size
0
reset
how to read this tab
guitar tuner
edit
Autoscroll
slow
fast
+/-
esc
set tempo
stop
[Intro]
D|-0--------0----|-0--------0----|-0--------0----|-0--------0----|
A|----13-15---15-|----13-15---15-|----10-12---12-|----10-12---12-|
F|---------------|---------------|---------------|---------------|
C|---------------|---------------|---------------|---------------|
G|---------------|---------------|---------------|---------------|
C|---------------|---------------|---------------|---------------|
                                                                        x6
D|-0--------0----|-0--------0----|-0--------0----|-0--------0----|
A|----12-13---13-|----12-13---12-|-----8-10---10-|-----8-10---10-|
F|---------------|---------------|---------------|---------------|
C|---------------|---------------|---------------|---------------|
G|---------------|---------------|---------------|---------------|
C|---------------|---------------|---------------|---------------|


D|---------------|---------------|---------------|---------------|---------------|
A|---------------|---------------|---------------|---------------|---------------|
F|---------------|---------------|---------------|---------------|---------------|
C|---------------|---------------|---------------|---------------|---------------|
G|-0-------------|---------------|---------------|---------------|---------------|
C|---------------|---------------|-3-------------|-0-------------|---------------|

[Verse]
D|-------------|-------------|-------------|-------------|
A|-----1---0h1-|-----1---0h1-|-------------|-------------|
F|-------------|-------------|---0-2---0h2-|---0-2---0h2-|
C|---2---------|---2---------|-------------|-------------|
G|-0-----0-----|-0-----0-----|-0-----0-----|-0-----0-----|
C|-------------|-------------|-------------|-------------|
                                                                        x2
D|-------------|-------------|-------------|-------------|
A|-------------|-------------|-------------|-------------|
F|---2-4---2h4-|---2-4---2h4-|-----0-------|-----0-------|
C|-------------|-------------|---2-----3-2-|---2-----3-2-|
G|-0-----0-----|-0-----0-----|-0-----0-----|-0-----0-----|
C|-------------|-------------|-------------|-------------|


D|-------------|-------------|-------------|-------------|
A|-------------|-------------|-------------|-------------|
F|-------------|-------------|-------------|-------------|
C|-3---x-x-x-x-|-5---x-x-x-x-|-0---0-0-0-0-|-0---2-2-2-2-|
G|-3---x-x-x-x-|-5---x-x-x-x-|-0---0-0-0-0-|-0---2-2-2-2-|
C|-3---x-x-x-x-|-5---x-x-x-x-|-0---0-0-0-0-|-0---2-2-2-2-|

D|-------------|-------------|-------------|-------------|
A|-------------|-------------|-------------|-------------|
F|-------------|-------------|-------------|-------------|
C|-3---x-x-x-x-|-5---x-x-x-x-|-7-7-7-7-7-7-|-9-9-9-9-9-9-|
G|-3---x-x-x-x-|-5---x-x-x-x-|-7-7-7-7-7-7-|-101010101010|
C|-3---x-x-x-x-|-5---x-x-x-x-|-7-7-7-7-7-7-|-9-9-9-9-9-9-|

D|-------------|-------------|
A|-------------|-------------|
F|-5-5-5-7-7-7-|-------------|
C|-5-5-5-7-7-7-|-------------|
G|-3-3-3-5-5-5-|-7b----------|
C|-------------|-------------|


D|---------------------|---------------------|---------------------|-----------------|
A|---------------------|---------------------|---------------------|-----------------|
F|---------5-5-5-5-5-5-|---------5-4-5-4-5-4-|---------4---4---4---|-----------------|
C|-7---7---------------|-7---7---------------|-5---5-----5---5---5-|-3---3-------5---|
G|-7---7---------------|-7---8---------------|-5---5---------------|-3---3-------5---|
C|-7---7---------------|-7---7---------------|-5---5---------------|-3---3-------5---|

D|---------------------|---------------------|---------------------|-----------------|
A|---------------------|---------------------|---------------------|-----------------|
F|---------5-5-5-5-5-5-|---------5-4-5-4-5-4-|---------4---4---4---|-----------------|
C|-7---7---------------|-7---7---------------|-5---5-----5---5---5-|-3---3----5--5---|
G|-7---7---------------|-7---8---------------|-5---5---------------|-3---3----5--5---|
C|-7---7---------------|-7---7---------------|-5---5---------------|-3---3----5--5---|

[Pre-Chorus]
D|-------------------------|-------------------------|
A|-------------------------|-------------------------|
F|-------------------------|-------------------------|
C|-3-3-3-3-3-3-3-3-3-3-3-3-|-7-7-7-7-7-7-7-7-7-7-7-7-|
G|-3-3-3-3-3-3-3-3-3-3-3-3-|-7-7-7-7-7-7-7-7-7-7-7-7-|
C|-3-3-3-3-3-3-3-3-3-3-3-3-|-7-7-7-7-7-7-7-7-7-7-7-7-|
                                                             x3
D|-------------------------|-------------------------|
A|-------------------------|-------------------------|
F|-------------------------|-------------------------|
C|-2-2-2-2-2-2-2-2-2-2-2-2-|-5-5-5-5-5-5-5-5-5-5-5-5-|
G|-2-2-2-2-2-2-2-2-2-2-2-2-|-5-5-5-5-5-5-5-5-5-5-5-5-|
C|-2-2-2-2-2-2-2-2-2-2-2-2-|-5-5-5-5-5-5-5-5-5-5-5-5-|


D|-------------------------|-------------------------|
A|-------------------------|-------------------------|
F|-------------------------|-------------------------|
C|-3-3-3-3-3-3-3-3-3-3-3-3-|-7-7-7-7-7-7-7-7-7-7-7-7-|
G|-3-3-3-3-3-3-3-3-3-3-3-3-|-7-7-7-7-7-7-7-7-7-7-7-7-|
C|-3-3-3-3-3-3-3-3-3-3-3-3-|-7-7-7-7-7-7-7-7-7-7-7-7-|

D|-------------------------|--------------------------------|
A|-------------------------|--------------------------------|
F|-------------------------|--------------------------------|
C|-6-6-6-6-6-6-6-6-6-6-6-6-|-5-6-6-6-6-10-10-10-10-10-10-10-|
G|-3-3-3-3-3-3-3-3-3-3-3-3-|--------------------------------|
C|-3-3-3-3-3-3-3-3-3-3-3-3-|--------------------------------|

[Chorus]
D|-------------------------------|---------------------------------|
A|-------------------------------|---------------------------------|
F|-------------------------------|---------------------------------|
C|-10---10---10---10---10---10---|-10---10---10---10---10-10-10-10-|
G|-10---10---10---10---10---10---|-10---10---10---10---10-10-10-10-|
C|-10---10---10---10---10---10---|-10---10---10---10---10-10-10-10-|

D|-------------------------------|------------------------------|
A|-------------------------------|------------------------------|
F|-------------------------------|------------------------------|
C|-9----9----9----9----9----9----|-9----9----9----9-------------|
G|-10---10---10---10---10---10---|-10---10---10---10------------|
C|-9----9----9----9----9----9----|-9----9----9----9----9-7-9-10-|

D|-------------------------------|---------------------------------|
A|-------------------------------|---------------------------------|
F|-------------------------------|---------------------------------|
C|-10---10---10---10---10---10---|-10---10---10---10---10-10-10-10-|
G|-7----7----7----7----7----7----|-7----7----7----7----7--7--10-10-|
C|-7----7----7----7----7----7----|-7----7----7----7----7--7--10-10-|

D|-------------------------|-------------------------|
A|-------------------------|-------------------------|
F|-------------------------|-------------------------|
C|-3---3---3---3---3---3---|-3---3---3---3---3---3---|
G|-3---3---3---3---3---3---|-3---3---3---3---3---3---|
C|-3---3---3---3---3---3---|-3---3---3---3---3---3---|



D|-------------------------------|-------------------------------|
A|-------------------------------|-------------------------------|
F|-------------------------------|-------------------------------|
C|-10---10---10---10---10---10---|-10---10---10---10---10---10---|
G|-10---10---10---10---10---10---|-10---10---10---10---10---10---|
C|-10---10---10---10---10---10---|-10---10---10---10---10---10---|

D|-------------------------------|---------------------------------|
A|-------------------------------|---------------------------------|
F|-------------------------------|---------------------------------|
C|-9----9----9----9----9----9----|-9----9----9----9----9--9--9--9--|
G|-10---10---10---10---10---10---|-10---10---10---10---10-10-10-10-|
C|-9----9----9----9----9----9----|-9----9----9----9----9--9--9--9--|

D|-------------------------------|-------------------------------|
A|-------------------------------|-------------------------------|
F|-------------------------------|-------------------------------|
C|-10---10---10---10---10---10---|----------------------10-10-10-|
G|-7----7----7----7----7----7----|-7-7-7-9-9-9-10-10-10-10-10-10-|
C|-7----7----7----7----7----7----|-7-7-7-9-9-9-10-10-10----------|

D|-------------------------|-------------------------|
A|-------------------------|-------------------------|
F|-------------------------|-------------------------|
C|-3-------------------3---|-5---6---5---3h5-3-5h3-2-|
G|-3---3-3-3-3-3-3-3-3-----|-------------------------|
C|-3---3-3-3-3-3-3-3-3---3-|---3---3---3-------------|

D|-------------------------|-------------------------|
A|-------------------------|-------------------------|
F|-5---5-5---5-5---5-----5-|-7-9-9-7-7-5-5---5-7---7-|
C|-5---5-5---5-5---5---5---|-------------------------|
G|-3---3-3---3-3---3-3-----|-------------------------|
F|-------------------------|-------------------------|

D|---------------------------------|---------------------------------|
A|---------------------------------|---------------------------------|
F|---------------------------------|---------------------------------|
C|-9----9--9----9--9----9--9----9--|-9------9----9--10-9-9-9h10-9----|
G|-10---10-10---10-10---10-10---10-|-10-----10---10---------------10-|
C|-9----9--9----9--9----9--9----9--|-9------9----9-------------------|

D|-------------------------|--------------------------|
A|-------------------------|--------------------------|
F|-------------------------|--------------------------|
C|-------------------------|--------------------------|
G|-7---7-7---7-7---7-7---7-|-7---7-5---5-7---7-10--10-|
C|-7---7-7---7-7---7-7---7-|-7---7--------------------|

D|-------------------------|-------------------------|
A|-------------------------|-------------------------|
F|-------------------------|-------------------------|
C|-3---3---3---3---3---3---|-6-6-6-5-5-5-3-3-3-------|
G|-3---3---3---3---3---3---|-------------------5-5-5-|
C|-3---3---3---3---3---3---|-------------------------|

D|-------------------------|
A|-------------------------|
F|-5-----------------------|
C|-5-----------------------|
G|-3-----------------------|
C|-------------------------|


***********************************

| h   Hammer-on
| +   Harmonic
| x   Dead note
| b   Bend

***********************************

            
            
Suggest correction
Creating personal tab
Creating personal tab
You can edit any tab online and save it as your Personal.

You can edit, replace or remove any tab part or add personal notes – all changes will be seen only by you.

Personal tabs can be accessed anytime from any device, even offline.
Learn more »
Give kudos to tab author, rate the tab!
1 2 3 4 5
comments
print report bad tab
guest
You may want to rate the tab now too:
select rating
Wanna post a correction for this tab? Suggest correction