Oops, an error
Loading. Please wait.

Heres To The Heartache tab

3,157 views 21 this week
no commentswrite comment
1 2 3 4 5
x 7
add to favorites
×
Save as Personal and add changes to this tab that will be seen only by you. Learn more ›
×
You can save this tab as Personal to edit and correct it or add notes. All changes will be seen only by you. Learn more »
launch autoscroll
font size
0
reset
how to read this tab
guitar tuner
edit
Autoscroll
slow
fast
+/-
esc
set tempo
stop
Nothing More: Here's To The Heartache

Transcribed by: mysticguitar77

Facebook: https://www.facebook.com/MysticGuitar77
YouTube Channel: https://www.youtube.com/user/MysticGuitar77

Date last modified: February 1, 2016

Tuning: Drop C (C,G,C,F,A,D)

Riff 1   "What if I told you life was built to break..."
D|----------------------------------------------------------------------------------------------|
A|----------------------------------------------------------------------------------------------|
F|-4-4---------4-4---------------------4-4-----4-4-4-4---------4-4------------------------------|
C|-5-5---------5-5---------------------5-5-----5-5-5-5---------5-5---------------------10--9--0-|
G|-2-2---------2-2---------------------0-0-----0-0-3-3-3-3-3-3-3-3-3-3-3-3-3-3-3-3-3-3-10--9--0-|
C|-2-2-2-2-2-2-2-2-2-2-2-2-2-2-2-2-2-2-0-0-0-0-0-0-------------------------------------10--9--0-|
       * * * *     * * * * * * * * * *     * *         * * * *     * * * * * * * * * *

D|---------------------------------------------------------------------------------------------|
A|---------------------------------------------------------------------------------------------|
F|-4-4---------4-4---------------------4-4-----4-4-4-4---------4-4-----------------------------|
C|-5-5---------5-5---------------------5-5-----5-5-5-5---------5-5-----------------------------|
G|-2-2---------2-2---------------------0-0-----0-0-3-3-3-3-3-3-3-3-3-3-3-3-3-3-3-3-3-3---------|
C|-2-2-2-2-2-2-2-2-2-2-2-2-2-2-2-2-2-2-0-0-0-0-0-0-------------------------------------/10-9-7-|
       * * * *     * * * * * * * * * *     * *         * * * *     * * * * 

Riff 2   "Would you believe me with time comes grace..."
D|-0-0-0-0-0-0-0-0-0-0-0-0-0-0-0-0-0-0-0-0-0-0-0-0-0-0-0-0-0-0-0-0-0-0-0-0-0-0-0-0-0-0-0-0-0-0-0-0-|
A|-5-5-5-5-5-5-5-5-5-5-5-5-4-4-4-4-4-4-4-4-4-4-4-4-5-5-5-5-5-5-5-5-5-5-5-5-7-7-7-7-7-7-7-7-7-7-7-7-|
F|-------------------------------------------------------------------------------------------------|
C|-------------------------------------------------------------------------------------------------|
G|-------------------------------------------------------------------------------------------------|
C|-------------------------------------------------------------------------------------------------|

D|---0---0---0---0---0---0---0---0---0---0---0---0--------------------------------------------|
A|-8---8---8---8---8---8---7---7---7---7---7---7---8-8-8-8-8-8-/15-15-15-15-15-15-15-15-15-15-|
F|--------------------------------------------------------------------------------------------|
C|--------------------------------------------------------------------------------------------|
G|--------------------------------------------------------------------------------------------|
C|--------------------------------------------------------------------------------------------|

Riff 3   "So here's to the heartache..."
D|-15p14----------------------------14-15p14----------------------------14-|
A|-------15----------------------15----------15----------------------15----|
F|----------16----------------16----------------16----------------16-------|
C|-------------17-14----14-17----------------------17-14----14-17----------|
G|-------------------------------------------------------------------------|
C|-------------------17----------------------------------17----------------|

D|-15p14----------------------------14-15p14----------------------------14-|
A|-------15----------------------15----------15----------------------15----|
F|----------16----------------16----------------16----------------16-------|
C|-------------17-14----14-17----------------------17-14----14-17----------|
G|-------------------15----------------------------------15----------------|
C|-------------------------------------------------------------------------|

Play Riff 3 x2   "We'll drink to all the years, the tears..."

Riff 3 ending:
D|-15p14----------------------------14---|
A|-------15----------------------15------|
F|----------16----------------16---------|
C|-------------17-14----14-17----------0-|
G|-------------------------------------0-|
C|-------------------17----------------0-|

Riff 4   "What if I told you that everything fades away..."
D|------------------------------------------------------------------------------------------------------------|
A|------------------------------------------------------------------------------------------------------------|
F|------------------------------------------------------------------------------------------------------------|
C|---------------------------------------------------------------------------------------------------10--9--0-|
G|------------------------------------------------------------10--------------9--------------10------10--9--0-|
C|-2-0-2-5-2-0-2-0-2-5-2-0-2-0-2-5-2-0-0-0-5*-4*-5*-0-10-0-10----10-0-10-0-10---10-0-10-0-10----10-0-10--9--0-|

D|-----------------------------------------------------------------------------------------------------------|
A|-----------------------------------------------------------------------------------------------------------|
F|-----------------------------------------------------------------------------------------------------------|
C|-----------------------------------------------------------------------------------------------------------|
G|------------------------------------------------------------10--------------9--------------10--------------|
C|-2-0-2-5-2-0-2-0-2-5-2-0-2-0-2-5-2-0-0-0-5*-4*-5*-0-10-0-10----10-0-10-0-10---10-0-10-0-10----10-0-/10-9-7-|

Play Riff 2 x1   "Would you believe with time comes grace..."

Riff 5   "So here's to the heartache..."
D|-----------------------0--0-0-0-0-0--0-0-0-0-0---0--0--0--0--0---0--0--0--0--0--|
A|-8--8-8-8-8-7--7-7-7-7-0--0-0-0-0-0--0-0-0-0-8---8--8--8--8--7---7--7--7--7--0--|
F|-7--7-7-7-7-7--7-7-7-7-x--x-x-x-x-x--x-x-x-x-0---0--0--0--0--0---0--0--0--0--0--|
C|-5--5-5-5-5-5--5-5-5-5-5--5-5-5-5-5--5-5-5-5-x---x--x--x--x--x---x--x--x--x--x--|
G|-5--5-5-5-5-5--5-5-5-5-5--5-5-5-5-5--5-5-5-5-10--10-10-10-10-10--10-10-10-10-10-|
C|-5--5-5-5-5-5--5-5-5-5-5--5-5-5-5-5--5-5-5-5-10--10-10-10-10-10--10-10-10-10-10-|

D|-0--0--0--0--0---0--0--0--0--3--3-3-3-3-2--2-2-2-2-5--5-5-5-5-5--5-5-5-5-|
A|-0--0--0--0--0---0--0--0--0--3--3-3-3-3-3--3-3-3-3-3--3-3-3-3-3--3-3-3-3-|
F|-0--0--0--0--0---0--0--0--0--0--0-0-0-0-0--0-0-0-0-0--0-0-0-0-0--0-0-0-0-|
C|-x--x--x--x--x---x--x--x--x--0--0-0-0-0-0--0-0-0-0-0--0-0-0-0-0--0-0-0-0-|
G|-10-10-10-10-10--10-10-10-10-x--x-x-x-x-x--x-x-x-x-x--x-x-x-x-x--x-x-x-x-|
C|-10-10-10-10-10--10-10-10-10-2--2-2-2-2-2--2-2-2-2-2--2-2-2-2-2--2-2-2-2-|

D|-3--3-3-3-3-2--2-2-2-2-0--0-0-0-0-0-x-x-x-x-----------------------0--0-0-0-0-0--0-0-0-0-|
A|-3--3-3-3-3-3--3-3-3-3-0--0-0-0-0-0-x-x-x-x-8--8-8-8-8-7--7-7-7-7-0--0-0-0-0-0--0-0-0-0-|
F|-0--0-0-0-0-0--0-0-0-0-0--0-0-0-0-0-x-x-x-x-7--7-7-7-7-7--7-7-7-7-x--x-x-x-x-x--x-x-x-x-|
C|-x--x-x-x-x-x--x-x-x-x-x--x-x-x-x-x-x-x-x-x-5--5-5-5-5-5--5-5-5-5-5--5-5-5-5-5--5-5-5-5-|
G|-3--3-3-3-3-3--3-3-3-3-3--3-3-3-3-3-x-x-x-x-5--5-5-5-5-5--5-5-5-5-5--5-5-5-5-5--5-5-5-5-|
C|------------------------------------x-x-x-x-5--5-5-5-5-5--5-5-5-5-5--5-5-5-5-5--5-5-5-5-|

D|-0--0-0-0-0-0--0-0-0-0-0---0--0--0--0--0---0--0--0--0--3--3-3-3-3-2--2-2-2-2-5--5-5-5-5-5--5-5-5-5-|
A|-8--8-8-8-8-7--7-7-7-7-10--10-10-10-10-10--10-10-10-10-3--3-3-3-3-3--3-3-3-3-3--3-3-3-3-3--3-3-3-3-|
F|-0--0-0-0-0-0--0-0-0-0-0---0--0--0--0--0---0--0--0--0--0--0-0-0-0-0--0-0-0-0-0--0-0-0-0-0--0-0-0-0-|
C|-x--x-x-x-x-x--x-x-x-x-x---x--x--x--x--x---x--x--x--x--0--0-0-0-0-0--0-0-0-0-0--0-0-0-0-0--0-0-0-0-|
G|-9--9-9-9-9-9--9-9-9-9-9---9--9--9--9--9---9--9--9--9--x--x-x-x-x-x--x-x-x-x-x--x-x-x-x-x--x-x-x-x-|
C|-9--9-9-9-9-9--9-9-9-9-9---9--9--9--9--9---9--9--9--9--2--2-2-2-2-2--2-2-2-2-2--2-2-2-2-2--2-2-2-2-|

D|-3--3-3-3-3-2--2-2-2-2-------------------------|
A|-3--3-3-3-3-3--3-3-3-3-8-----8-8---7-7---7-7---|
F|-0--0-0-0-0-0--0-0-0-0-7-----7-7---7-7---7-7---|
C|-x--x-x-x-x-x--x-x-x-x-5-----5-5---5-5---5-5---|
G|-3--3-3-3-3-3--3-3-3-3-0-0-0-0-0-0-0-0-0-0-0-0-|
C|-------------------------0-0-----0-----0-----0-|
                           * *     *     *     *

Riff 6   "I'll suffer, I'll bleed..." (just the chords)
D|-0----------0----------0----------------0----------0----------0---------------------|
A|-1----------1----------0----------------1----------1----------0---------------------|
F|-0----------2----------1----------------0----------2----------1---------------------|
C|-2----------2----------2--------0--0--0-2----------2----------2----2--2--2--0--0--0-|
G|-3----------0-------------------0--0--0-3----------0---------------2--2--2--0--0--0-|
C|--------------------------------0--0--0----------------------------2--2--2--0--0--0-|

D|-0------------------------------|
A|-1------------------------------|
F|-0----------2-------------------|
C|-2----------2-------------------|
G|-3----------0-0-0-0-0-0-0-0-0-0-|
C|--------------------------------|
                * * * * * * * * *

Solo
D|-------------------------------------------------------------|
A|------8------8------8------8------10------10------10------10-|
F|-9h11---9h11---9h11---9h11---9h11----9h11----9h11----9h11----|
C|-------------------------------------------------------------|
G|-------------------------------------------------------------|
C|-------------------------------------------------------------|

D|-----------------------------------------------------------|
A|------9------9------9------9------9------9------10------10-|
F|-9h11---9h11---9h11---9h11---9h11---9h11---9h11----9h11----|
C|-----------------------------------------------------------|
G|-----------------------------------------------------------|
C|-----------------------------------------------------------|

D|-------------------------------------------------------------|
A|------8------8------8------8------10------10------10------10-|
F|-9h11---9h11---9h11---9h11---9h11----9h11----9h11----9h11----|
C|-------------------------------------------------------------|
G|-------------------------------------------------------------|
C|-------------------------------------------------------------|

D|----------------------------------------------------------------------------------------------------|
A|------9------9------9------9------9h10-10/12-12\10-10/12-12\10-12b13-12--10--12-10-12b13-12--10--12-|
F|-9h11---9h11---9h11---9h11---9h11-------------------------------------------------------------------|
C|----------------------------------------------------------------------------------------------------|
G|----------------------------------------------------------------------------------------------------|
C|----------------------------------------------------------------------------------------------------|

D|-5p4-------4-5p4-------4-5p4-------4-5p4---4-5/7-7b8-7--5--7-5-7b-8r7~-|
A|-----5---5-------5---5-------5---5-------5-----------------------------|
F|-------4-----------4-----------4---------------------------------------|
C|-----------------------------------------------------------------------|
G|-----------------------------------------------------------------------|
C|-----------------------------------------------------------------------|
      * * * *      * * * *     * * * *     * *

Riff 7 (clean and fingerpicked)   "So, here's to the heartache..."
D|-----------------------------------3---2---5-------3---2---7-|
A|-8---7---0------8----7----0----------------------------------|
F|-------------------------------------------------------------|
C|-------------------------------------------------------------|
G|---------------------------------------------------3---3-----|
C|-5---5---5------10---10---10-------2---2---2-----------------|
                                                             ^ tap with picking hand

Play Riff 5 x0.5   "Here's to the dark days..." (2nd half only)

Fill 1
D|-------------------------|
A|-------------------------|
F|-------------------------|
C|-0-----------------------|
G|-0-0-0-0-0-0-0-0-0-0-0-0-|
C|-0-0-0-0-0-0-0-0-0-0-0-0-|
     * * * * * * * * * * *

Play Solo (just the beginning portion and gets repeated one additional time)

Solo ending
D|--------------------------------------------|
A|-9h10-10/12-12\10-10/12-12\10-12b-13r12-10~-|
F|--------------------------------------------|
C|--------------------------------------------|
G|--------------------------------------------|
C|--------------------------------------------|

Enjoy!!
Suggest correction
Creating personal tab
Creating personal tab
You can edit any tab online and save it as your Personal.

You can edit, replace or remove any tab part or add personal notes – all changes will be seen only by you.

Personal tabs can be accessed anytime from any device, even offline.
Learn more »
comments
print report bad tab
guest
You may want to rate the tab now too:
select rating
Wanna post a correction for this tab? Suggest correction