Oops, an error
Loading. Please wait.

Scission Tab

version 2
version 2

Whole song

310 views 3 this week
1 commentread comment
1 2 3 4 5
3 more votes to show rating
add to favorites
launch autoscroll
font size
0
reset
how to read this tab
guitar tuner
Autoscroll
slow
fast
+/-
esc
set tempo
stop
Author
tabed by iowa294

drope d tunning


CHORUS:
|------------------------------------------------------------------|
|------------------------------------------------------------------|
|------------------------------------------------------------------|
|---6---2--3--6-6--6-6--6-6-6----6---2--7--7-7--777/8888888--------|
|-4---0----3--5-5--5-5--5-5-5--4---0----6--6-6--666/8888888--------|
|----------3--4-4--3-3--3-3-3-----------5--5-5--555/8888888--------|

|---------------------------------------------------------------------|
|---------------------------------------------------------------------|
|---------------------------------------------------------------------|
|---6---2--3--6-6--6-6--6-6-3-----------------------------------------|
|-4---0----3--5-5--5-5--5-5-3------6------6----6------6------6----6---|
|----------3--4-4--4-4--4-4-3--4-4----4-4----4----5-5----5-5----5-----|

|--------------------------------------|
|--------------------------------------|
|--------------------------------------|
|--------------------------------------|
|-----6------6----6------6------6----6-|
|-4-4----4-4----4----5-5----5-5----5---|

VERSE:
|-----------------------------------------------------------------------|
|-----------------------------------------------------------------------|
|-6666-4444-444/7777-5555-555\3-6666-4444-444/6-6666-6666-666\5---------|
|-5555-5555-444/6665-6666-555\3-5555-5555-444/6-6666-6666-666\5---------|
|-4444-4444-444/5555-5555-555\3-4444-4444-444/6-6666-6666-666\5---------|


|--------------|
|--------------|
|--------------|
|--------------|
|--------------|
|-4664664664---|

INTERLUDE END:
|--------------|
|--------------|
|--------------|
|-7-7-7-7-7/9--|
|-7-7-7-7-7/9--|
|-7-7-7-7-7/9--|

INTERLUDE 2:
|------------------------------------------------------------------------|
|------------------------------------------------------------------------|
|------------------------------------------------------------------------|
|(-46646-46646-4664-)99991111111-46646-46646-46646-46646-999911111111----|
|(-46646-46646-4664-)99991111111-46646-46646-46646-46646-999911111111----|
|(-46646-46646-4664-)99991111111-46646-46646-46646-46646-999911111111----|

the suff in the brakets listen to the cd to know how many time to play
CHORUS FILL 2:
|----------------------|
|----------------------|
|----------------------|
|--------------------2-|
|-----6------6----6--2-|
|-4-4----4-4----4----2-|
Suggest correction
Give kudos to tab author, rate the tab!
1 2 3 4 5
comments
print report bad tab
1 comment total.
0 reply
iowa294 111 Nov 03, 2004 07:00 PM

try playing the intro like this

d----6---3-3-
a-4----1---3-
d----------3-

guest
You may want to rate the tab now too:
select rating
Wanna post a correction for this tab? Suggest correction