Oops, an error
Loading. Please wait.

Rendaman Tab

4,430 views 3 this week
no commentswrite comment
1 2 3 4 5
2 more votes to show rating
add to favorites
launch autoscroll
font size
0
reset
how to read this tab
guitar tuner
Autoscroll
slow
fast
+/-
esc
set tempo
stop
Help us to improve Ultimate-Guitar.com Take our survey!
×
Author
Difficulty
intermediate
Tabbed by: malphranky

Another awesome song from another awesome album by an amazing band.
I wish there were more tabs here of NCIS, but I understand that because they're from japan,
that not many people have heard of them.
Anyway, NCIS's lead guitarist Shinichi Ubukata is another of my idols.
Being a huge fan of ELLEGARDEN, I am a huge fan of both the HIATUS and NCIS.
If you haven't heard of them, do look them up.
Anyway, just like my other tabs, this is how I play this song which I have to say is 
darn accurate.
Like always listen to song for rhythm.

Tuning:Standard

Intro:

e|-------------------------------------------|
B|-------------------------------------------|
G|-------------------------------------------|
D|-------------------------------------------|     2X
A|-8b-----------------8b---------------------|
E|-7b-77777-10b-77777-7b-77777-10b-7777\555--|

e|--------------------------------------|
B|--------------------------------------|
G|--------------------------------------|
D|--------------------------------------|
A|-8b-----------------8b----------------|
E|-7b-77777-10b-77777-7b-77777-10b------|

then:

e|-------------------------------------------|
B|-------------------------------------------|
G|-------------------------------------------|
D|-------------------------------------------|     2X
A|-8b-----------------8b---------------------|
E|-7b-77777-10b-77777-7b-77777-10b-7777\555--|

Verse:1st half

e|----------------------------------|
B|----------------------------------|
G|----------------------------------|
D|-44-444-7-4-2-242-----------------|   4X
A|-22-222-5-2-0-020-----------------|
E|----------------------------------|

Verse: 2nd half

e|-------------------------------------------|
B|-------------------------------------------|
G|-------------------------------------------|
D|-------------------------------------------|     2X
A|-8b-----------------8b---------------------|
E|-7b-77777-10b-77777-7b-77777-10b-7777\555--|

Then:
This part I guess is a little tricky.
At the end of each time this part is played Shinichi does some crazy slides mixed with 
the strings while his fingers are placed on them but not holding them down.
So just go crazy after each time you play this part.Hear the song and you'll know what 
talking about.

e|----------------------------|
B|----------------------------|
G|-9/10-X-9/10----------------|
D|-9/10-X-9/10-X-12-9---------| 4X
A|-7/8--X-7/8--X-12-9---------|
E|-------------X-10-7---------|

Then it's just bass until the chorus.

Chorus:

e|-------------------------------------------------------------|
B|-------------------------------------------------------------|
G|-------------------------------------------------------------|
D|-2222222222222-5555555555-22222222222-5555555555-777777------|
A|-2222222222222-5555555555-22222222222-5555555555-777777------|
E|-0000000000000-3333333333-00000000000-3333333333-555555------|

Verse 2:

e|----------------------------------|
B|----------------------------------|
G|----------------------------------|
D|-44-444-7-4-2-242-----------------|   6X
A|-22-222-5-2-0-020-----------------|
E|----------------------------------|

Play Chorus,

then this:


e|----------------------------------|
B|----------------------------------|
G|-9/10-X-9/10----------------------|
D|-9/10-X-9/10-X-12-9-7-7/9\7-------| 8X
A|-7/8--X-7/8--X-12-9-7-7/9\7-------|
E|-------------X-10-7-5-5/7\5-------|

Then all you play is the intro until the song ends. There you have it. Simple and easy 
very fun song to play.

************************************

| /   slide up
| \   slide down
| h   hammer-on
| p   pull-off
| ~   vibrato
| +   harmonic
| x   Mute note
| b   Bend
| pb  Pre-bend
| br  Bend release
| pbr Pre-bend release
| brb Bend release bend

************************************
Suggest correction
Give kudos to tab author, rate the tab!
1 2 3 4 5
comments
print report bad tab
guest
You may want to rate the tab now too:
select rating
Wanna post a correction for this tab? Suggest correction