Oops, an error
Loading. Please wait.

Fabricantes De Armas tab

by Notoken
69 views 1 this week
no commentswrite comment
1 2 3 4 5
3 more votes to show rating
add to favorites
×
Save as Personal and add changes to this tab that will be seen only by you. Learn more ›
×
You can save this tab as Personal to edit and correct it or add notes. All changes will be seen only by you. Learn more »
launch autoscroll
font size
0
reset
how to read this tab
guitar tuner
edit
Autoscroll
slow
fast
+/-
esc
set tempo
stop
LA canción comienza con el bajo:
No estoy seguro si es en esas cuerdas, pero esa es la 
manera de tocarlas, ahi le van probando, 

hasta que salga.
 
|--------------------------
|--------------------------  
|-----3-3-2-2-5-5----------  X 2
|-0-0----------------------


Luego entra la guitarra:

e ---------------------
B ---------------------
G ---------------------
D ---------------------
A ---3h5---------------
E ---------------------


El bajo sigue tocando el mismo patrón 2 veces y entra la guitarra:

e -------------------------------------------------------
B -------------------------------------------------------
G ------5-5--4-4--7-7-------------5-5--4-4--7-7----------
D -2-2--5-5--4-4--7-7--------2-2--5-5--4-4--7-7----------
A -2-2--3-3--2-2--5-5--------2-2--3-3--2-2--5-5----------
E -0-0-----------------------0-0-------------------------

Fabricantes de armas... (parte lenta)
e -------------------------------------------------------
B -------------------------------------------------------
G ------5-5--4-4--7-7-------------5-5--4-4--7-7----------
D -2-2--5-5--4-4--7-7--------2-2--5-5--4-4--7-7----------
A -2-2--3-3--2-2--5-5--------2-2--3-3--2-2--5-5----------
E -0-0-----------------------0-0-------------------------

VERSOS:

e ---------------------------------------------------------------------
B ---------------------------------------------------------------------
G ---------5-5-5-5-4-4-4-4-7-7-7-7----------5-5-5-5-4-4-4-4-7-7-7-7----
D -2-2-2-2-5-5-5-5-4-4-4-4-7-7-7-7--2-2-2-2-5-5-5-5-4-4-4-4-7-7-7-7----
A -2-2-2-2-3-3-3-3-2-2-2-2-5-5-5-5--2-2-2-2-3-3-3-3-2-2-2-2-5-5-5-5----
E -0-0-0-0--------------------------0-0-0-0----------------------------

Luego:

e -------------------------------------------------------------------
B -------------------------------------------------------------------
G -------------------------------------------------------------------
D -7-7-7-7-7-7-10-10-9-9-9-9-9-9-9-9-5-5-5-5-5-5-8-8-7-7-7-7-7-7-7-7-
A -7-7-7-7-7-7-10-10-9-9-9-9-9-9-9-9-5-5-5-5-5-5-8-8-7-7-7-7-7-7-7-7-
E -5-5-5-5-5-5-8--8--7-7-7-7-7-7-7-7-3-3-3-3-3-3-6-6-5-5-5-5-5-5-5-5-


e ---------------------------------------------------------------
B ---------------------------------------------------------------
G ---------------------------------------------------------------
D -7-7-7-7-7-7-10-10-9-9-9-9-9-9-9-9-5-5-5-5-5-5-8-8-7--7--7--7--
A -7-7-7-7-7-7-10-10-9-9-9-9-9-9-9-9-5-5-5-5-5-5-8-8-7--7--7--7--
E -5-5-5-5-5-5-8--8--7-7-7-7-7-7-7-7-3-3-3-3-3-3-6-6-5--5--5--5--


'fabricantes de armas, fabriquen pan...' (parte rápida)
e ---------------------------------------------------------------------
B ---------------------------------------------------------------------
G ---------5-5-5-5-4-4-4-4-7-7-7-7----------5-5-5-5-4-4-4-4-7-7-7-7---- 
D -2-2-2-2-5-5-5-5-4-4-4-4-7-7-7-7--2-2-2-2-5-5-5-5-4-4-4-4-7-7-7-7---- X3
A -2-2-2-2-3-3-3-3-2-2-2-2-5-5-5-5--2-2-2-2-3-3-3-3-2-2-2-2-5-5-5-5----
E -0-0-0-0--------------------------0-0-0-0----------------------------

e -0-0-0-0-3-3-3-3-2-2-2-2-5-5-5-5-  (esto hay que hacerlo muy rápido 
para que suene bien)


LUego sigue la parte del verso en forma lenta y luego lo 
mismo pero con palm muting y más rápido. Eso es todo. 
Nos vemos

            
            
Suggest correction
Creating personal tab
Creating personal tab
You can edit any tab online and save it as your Personal.

You can edit, replace or remove any tab part or add personal notes – all changes will be seen only by you.

Personal tabs can be accessed anytime from any device, even offline.
Learn more »
Give kudos to tab author, rate the tab!
1 2 3 4 5
comments
print report bad tab
guest
Wanna post a correction for this tab? Suggest correction