Oops, an error
Loading. Please wait.

Que Angustia chords

by Notoken
21 views 1 this week
no commentswrite comment
1 2 3 4 5
3 more votes to show rating
add to favorites
×
Save as Personal and add changes to this tab that will be seen only by you. Learn more ›
×
You can save this tab as Personal to edit and correct it or add notes. All changes will be seen only by you. Learn more »
launch autoscroll
font size
0
reset
transpose
0
reset
simplify chords
display chords
guitar tuner
edit
Autoscroll
slow
fast
+/-
esc
set tempo
stop
Strumming
There is no strumming pattern for this song yet. and get +5 IQ
12:02 p.m. 26/01/2003


No hay intro
Guitarra:
          D#5     Bb5     C#5     G#5
E-|------------------------------------------------|
B-|------------------------------------------------|
G-|-------8---------------6------------------------|
D-|-------8-------8-------6-------6----------------|
A-|-------6-------8-------4-------6----------------|
E-|---------------6---------------4----------------|

D#5        Bb5
Quiero sentirme mas libre 
C#5        G#5
De esta angustia que me deprime
D#5        Bb5
Dinero guardado en bodegas
C#5        G#5
Por si acaso hay una guerra
D#5        Bb5
Si no pertenece a su clase social
C#5        G#5
Serás un marginado más

El coro se toca asi:
Guitarra:
             D#5     Bb5        C#5      G#5
E-|------------------------------------------------|
B-|------------------------------------------------|
G-|----------8-------------------6-----------------|
D-|--------8---8------8--------6---6------6--------|
A-|------6----------8---8----4----------6---6------|
E-|---------------6-------8-----------4-------4----|

coro

D#5     Bb5        C#5      G#5
Sistema   nos estas exprimiendo
D#5     Bb5        C#5      G#5
Mentiras  es lo único que nos dicen
D#5     Bb5        C#5      G#5
Pobreza   eso ya no es cosa nueva
D#5     Bb5        C#5      G#5
Hambre    eso es parte de la pobreza


D#5        Bb5
Quiero sentirme mas libre 
C#5        G#5
De esta angustia que me deprime
D#5        Bb5
Dinero guardado en bodegas
C#5        G#5
Por si acaso hay una guerra
D#5        Bb5
Si no pertenece a su clase social
C#5        G#5
Serás un marginado más


coro

D#5     Bb5        C#5      G#5
Sistema   nos estas exprimiendo
D#5     Bb5        C#5      G#5
Mentiras  es lo único que nos dicen
D#5     Bb5        C#5      G#5
Pobreza   eso ya no es cosa nueva
D#5     Bb5        C#5      G#5
Hambre    eso es parte de la pobreza

fin

            
            
Suggest correction
Creating personal tab
Creating personal tab
You can edit any tab online and save it as your Personal.

You can edit, replace or remove any tab part or add personal notes – all changes will be seen only by you.

Personal tabs can be accessed anytime from any device, even offline.
Learn more »
Give kudos to tab author, rate the tab!
1 2 3 4 5
comments
print report bad tab
guest
Wanna post a correction for this tab? Suggest correction