Oops, an error
Loading. Please wait.

Resiste Juan tab

by Notoken
17 views 1 this week
no commentswrite comment
1 2 3 4 5
3 more votes to show rating
add to favorites
×
Save as Personal and add changes to this tab that will be seen only by you. Learn more ›
×
You can save this tab as Personal to edit and correct it or add notes. All changes will be seen only by you. Learn more »
launch autoscroll
font size
0
reset
how to read this tab
guitar tuner
edit
Autoscroll
slow
fast
+/-
esc
set tempo
stop
De     :JuAn mag102@
07:28 a.m. 24/03/2003
Esta es uno de los mejores Grupos de hard-core
Ecuatoriano!!!!!!!!!!!

1st guitarra :

E-|-----------------------------------------------|
B-|-----------------------------------------------|
G-|-----------------------------------------------|
D-|-----------5-x-5-x-5------------9-x-9-x-9------|
A-|-----------5-x-5-x-5------------9-x-9-x-9------|
E-|--0--5--2--3-x-3-x-3---0--7--6--7-x-7-x-7------|

resiste juan resiste no te preocupes
toda pesadilla ya acabara 
todo cochino político puerco corruptor
algún día se morirá
los ataque oligarcas cesaran
y los ricos a los pobres ayudara
la paz entre los pueblos reinara

que ingenuidad!!!que ingenuidad!!!

     E5   A5   E5   F5
E-|------------------------------|
B-|------------------------------|
G-|------------------------------|
D-|--222--777--999--333----------|
A-|--222--777--999--333----------|
E-|--000--555--777--111----------|

resiste juan resiste,la delincuencia es ley
y los explotadores que viven como rey
conflictos regionales,por tierras morirán
regionalismo y centralismo nunca acabara
los villanos políticos se matan entre si
ya todo es corrupción, corrupto el país
se creen dictadores, malditos corruptores
no importa prepotencia país en decadencia!!!!!

coro
 E5   A5   E5    F5
E-|-------------------------|
B-|-------------------------|
G-|-------------------------|
D-|--222-777-999-3-x-3-x-3--|
A-|--222-777-999-3-x-3-x-3--|
E-|--000-555-777-1-x-1-x-1--|

resiste juan!!resiste!!! 
resiste juan!!resiste!!! 
resiste juan!!resiste!!! 
resiste juan!!resiste!!! 

de tin marin de dos pingüe
cual es mi presidente quisiera yo saber 
huelgas y paros país paralizado
cosulta popular,cula se queda y cual se va
drogas y alcohol que asechan  sin parar
si ya estas infectado no puedes escapar

coro
resiste juan!!resiste!!! 
resiste juan!!resiste!!! 
resiste juan!!resiste!!! 
resiste juan!!resiste!!! 

E-|-----------------------------------------------|
B-|-----------------------------------------------|
G-|-----------------------------------------------|
D-|-----------5-x-5-x-5------------9-x-9-x-9------|
A-|-----------5-x-5-x-5------------9-x-9-x-9------|
E-|--0--5--2--3-x-3-x-3---0--7--6--7-x-7-x-7------|


resiste juan!!resiste juan!!
resiste juan!!resiste juan!!
resiste juan!!resiste juan!!
resiste juan!!resiste juan!!


Que viva colombia!!!!

            
            
Suggest correction
Creating personal tab
Creating personal tab
You can edit any tab online and save it as your Personal.

You can edit, replace or remove any tab part or add personal notes – all changes will be seen only by you.

Personal tabs can be accessed anytime from any device, even offline.
Learn more »
Give kudos to tab author, rate the tab!
1 2 3 4 5
comments
print report bad tab
guest
Wanna post a correction for this tab? Suggest correction