Oops, an error
Loading. Please wait.

Souvenirs Effaces Tab

488 views 1 this week
no commentswrite comment
1 2 3 4 5
please rate
add to favorites
launch autoscroll
font size
0
reset
how to read this tab
guitar tuner
Autoscroll
slow
fast
+/-
esc
set tempo
stop
Help us to improve Ultimate-Guitar.com Take our survey!
×
Author
Difficulty
novice
Nouvelle Croisade - Souvenirs Effacés

Le E haut sonne mieux pour le couplet, mais prenez le bas pour le refrain. Et 
voyez si vous préférez les powerchords ou pas!
The high E sounds better for the verse, but the lower one is better for the 
chorus. Use powerchords, or not!

   G#m    C#m    B    E           A
e|--4------4-----2----0----7------0--------------------------------------------|
B|--4------5-----4----0-ou-9------2--------------------------------------------|
G|--4------6-----4----1----9------2--------------------------------------------|
D|--6------6-----4----2----9------2--------------------------------------------|
A|--6------4-----2----2----7------0--------------------------------------------|
E|--4-----------------0--------------------------------------------------------|


G#m C#m B E

G#m C#m B A


G#m            C#m
A la fin de la deuxième guerre
B                 E
Sur les plages de Normandie,

G#m        C#m  B                A
Les dits Alliés débarquèrent sur notre terre,

G#m          C#m     B                   E
Afin de terrasser ce qu'on leur disaient être ennemi,

   G#m          C#m            B             E
Et une jeune unité Allemande y a laissée des vies.


 E        G#m   C#m             B
Honneur à toi ! Soldat de l'Allemagne !
   A         B      E             B
Souvenir effacé, au nom d'autres idées !


 E        G#m   C#m             B
Honneur à toi ! Soldat de l'Allemagne !
   A         B      E             B
Souvenir effacé, au nom d'autres idées !


La souffrance fut la même,
Pour des adversaires frères de sang,
Le courage et la peine,
Etaient dans chaque camp,
Aujourd'hui toujours les mêmes sont présentés comme des héros,
Mais n'oublions pas les combattants de l'Ordre Nouveau.

 E        G#m   C#m             B
Honneur à toi ! Soldat de l'Allemagne !
   A         B      E             B
Souvenir effacé, au nom d'autres idées !
(x4)


solo:
e|-----------------------------------7----7h9-7h9-7h9-7----------------------|
B|--4h5-4h5-4h5-4-2----4h5-4h5-4h5-4--------------------9---9h10-9--7h9-7--5-|
G|---------------------------------------------------------------------------|
D|---------------------------------------------------------------------------|
A|---------------------------------------------------------------------------|
E|---------------------------------------------------------------------------|

e|-12--11-9---11-12-14--12-11------------------------------------------------|
B|----------------------------12---------------------------------------------|
G|---------------------------------------------------------------------------|
D|---------------------------------------------------------------------------|
A|---------------------------------------------------------------------------|
E|---------------------------------------------------------------------------|

Mais ta résistance s'achève héroiquement,
Dans les ruines de Berlin tu t'écroule finalement,
Contre les partisans d'une Europe à genoux,
Tu as dressé ta bannière dans le vent.

  E       G#m   C#m             B
Honneur à toi ! Jeune loup du Fuhrer !
    A      B     E             B
Car ton combat a fait toute ta valeur !
  E       G#m   C#m             B
Honneur à toi ! Jeune loup du Fuhrer !
    A       B   A   B           A        B               C#m
Car ton combat, ton combat, ton combat a fait toute ta valeur
Suggest correction
What's this?
You can suggest a correction to this tab. Community and Mods will review your correction and vote to approve or reject it.
comments
We did not receive enough feedback on this tab! Please rate:
print report bad tab
1 2 3 4 5
guest
You may want to rate the tab now too:
select rating
Please do not post tabs as comments. Select "correction" instead!