Oops, an error
Loading. Please wait.

In A Manner Of Speaking chords

version 5
version 5

Whole song

604 views 1 this week
no commentswrite comment
1 2 3 4 5
1 last vote to show rating
add to favorites
×
Save as Personal and add changes to this tab that will be seen only by you. Learn more ›
×
You can save this tab as Personal to edit and correct it or add notes. All changes will be seen only by you. Learn more »
launch autoscroll
font size
0
reset
transpose
0
reset
simplify chords
display chords
guitar tuner
edit
Autoscroll
slow
fast
+/-
esc
set tempo
stop
Author
Difficulty
About this tab version
This version is for standard tuning, all the others on the site make use of a capo. Was this info helpful? Yes No
Strumming
There is no strumming pattern for this song yet. and get +5 IQ
Nouvelle Vague "In a manner of speaking"

     Am  Ebm   Db   B    Bb  Bbsus4  
e:---0----6---------2----1----1----|
B:---1----7----7----4----3----4----|
G:---2----8----6----4----3----3----|
D:---2----8----4----4----3----3----|
A:---0----6----4----2----1----1----|
E:---------------------------------|

Intro Chord

   Am                                 
e:------0-------0-----0-:  
B:------1-------1-----1-:  
G:------2-------2-----2-:
D:----------------------:
A:-0---------0-----0----:
E:----------------------: 

  Ebm                                           Db
e:--------------------------------------------:--------------------------------------------:  
B:------7--------7----------7------------7----:------7--------7----------7------------7----:  
G:------8--------8----------8------------8----:------6--------6----------6------------6----:
D:--------------------------------------------:------------4-----4---------------4---------:
A:-6-------6-----------6---------6------------:-4-------4-----------4---------4----------4-:
E:------------6-----6---------------6-------6-:--------------------------------------------:

   B                                            Bbsus4              Bb
e:--------------------------------------------:--------------------------------------------:  
B:------4--------4----------4------------4----:------4--------4----------3------------3----:  
G:------4--------4----------4------------4----:------3--------3----------3------------3----:
D:------------4-----4---------------4---------:------------3-----3---------------3---------:
A:-2-------2-----------2---------2----------2-:-1-------1-----------1---------1----------1-:
E:--------------------------------------------:--------------------------------------------:       

Am

Ebm    Db    B    Bbsus4  Bb
                Hmhmhmmm

Ebm        
In a manner of speaking I just want to say
Db
That I could never forget the way
B                                Bbsus4  Bb
You told me everything by saying nothing

Ebm 
In a manner of speaking I don't understand
Db
How love in silence becomes reprimand
B                                 Bbsus4  Bb
But the way that i feel about you is beyond words

Ebm      Db 
Oh give me the words
      B
Give me the words
        Bbsus4  Bb
That tell me nothing
Ebm            Db 
Ohohohoh give me the words
      B
Give me the words
         Bbsus4  Bb
That tell me everything

Ebm 
In a manner of speaking semantics won't do
Db
In this life that we live we only make do
B                                Bbsus4  Bb
And the way that we feel might have to be sacrified

Ebm 
So in a manner of speaking I just want to say
Db
That just like you I should find a way
B                                Bbsus4  Bb
To tell you everything by saying nothing

Ebm      Db 
Oh give me the words
      B
Give me the words
        Bbsus4  Bb
That tell me nothing
Ebm            Db 
Ohohohoh give me the words
      B
Give me the words
         Bbsus4  Bb
That tell me everything

Ebm      Db 
Oh give me the words
      B
Give me the words
        Bbsus4  Bb
That tell me nothing
Ebm            Db 
Ohohohoh give me the words
      B
Give me the words
         Bbsus4  Bb
That tell me everything



If you prefer to strum, it sounds pretty good like this-

  Ebm                                           Db
e:--------------------------------------------:--------------------------------------------:   ^ = up strum
B:------7--------7--x-------7----x-------7----:------7-----7--7--x-------7----x--7----7----:   v = down strum
G:-8----8--8-----8--x--8----8----x-------8----:-6----6--6--6--6--x--6----6----x--6----6--6-:
D:-8----8--8--8--8--x--8----8----x--8----8--8-:-x----x--x--4--4--x--x----x----x--4----4--x-:
A:-6----6--6--x-----x--6----6----x--x-------x-:-4----4--4--------x--4----4----x----------4-:
E:------------6---------------------6-------6-:--------------------------------------------:
   v    v  ^  v  ^  v  ^    ^    ^  v    v  ^   v    v  ^  v  ^  v  ^    ^    ^  v    v  ^ 

   B                                            Bbsus4                Bb
e:--------------------------------------------:--------------------------------------------:  
B:------4-----4--4--x-------4----x--4----4----:-4----4--4----4--4--4--3----3--3----3--3--3-:  
G:-4----4--4--4--4--x--4----4----x--4----4--4-:-3----3--3----3--3--3--3----3--3----3--3--3-:
D:-4----4--4--4--4--x--4----4----x--4----4--4-:-3----3--3----3--3--3--3----3--3----3--3--3-:
A:-2----2--2--------x--2----2----x----------2-:-1----1--1----1--1--1--1----1--1----1--1--1-:
E:--------------------------------------------:--------------------------------------------:
   v    v  ^  v  ^  v  ^    ^    ^  v    v  ^   v    v  ^    ^  v  ^  v    v  ^    ^  v  ^

            
            
Suggest correction
Creating personal tab
Creating personal tab
You can edit any tab online and save it as your Personal.

You can edit, replace or remove any tab part or add personal notes – all changes will be seen only by you.

Personal tabs can be accessed anytime from any device, even offline.
Learn more »
Give kudos to tab author, rate the tab!
1 2 3 4 5
comments
print report bad tab
guest
You may want to rate the tab now too:
select rating
Wanna post a correction for this tab? Suggest correction