Oops, an error
Loading. Please wait.

Making Plans For Nigel chords

version 3
version 3

Whole song

133 views 1 this week
no commentswrite comment
1 2 3 4 5
3 more votes to show rating
add to favorites
×
Save as Personal and add changes to this tab that will be seen only by you. Learn more ›
×
You can save this tab as Personal to edit and correct it or add notes. All changes will be seen only by you. Learn more »
launch autoscroll
font size
0
reset
transpose
0
reset
display chords
guitar tuner
edit
Autoscroll
slow
fast
+/-
esc
set tempo
stop
Author
Difficulty
Strumming
There is no strumming pattern for this song yet. and get +5 IQ
Nouvelle Vague "Making plans for Nigel"

     A   F#m  C#m   Bm   G    E    F#    D    G#  
e:---5----2----4----2----3----7----2-----2----4-|
B:---5----2----5----3----0----9----2-----3----4-|
G:---6----2----6----4----0----9----3-----2----5-|
D:---7----4----6----4----0----9----4-----0----6-|
A:---7----4----4----2----2----7----4----------6-|
E:---5----2--------------3---------2----------4-|

   A                        F#m
e:-------5--------5-------:-------2--------2-------:  
B:-------5--------5-------:-------2--------2-------:  
G:-------6--------6-------:-------2--------2-------:
D:------------------------:------------------------:
A:-------------7----------:-------------4----------:
E:-5--------5-----------5-:-2--------2-------------:      

   1 and 2 and 3 and 4 and  1 and 2 and 3 and 4 and

  C#m                    
e:-------4--------4-------:-------4--------4-------:
B:-------5--------5-------:-------5--------5-------:
G:-------6--------6-------:-------6--------6-------:
D:------------------------:------------------------:
A:-4--------4-------------:-4--------4-------------:
E:-------------4--------4-:-------------4----------:
  
   1 and 2 and 3 and 4 and  1 and 2 and 3 and 4 and

A          F#m              C#m
We're only making plans for Nigel 
A          F#m              C#m
We only want what's best for him 
A          F#m              C#m
We're only making plans for Nigel 
A          F#m              C#m
Nigel just needs this helping hand 

Bm                           A 
And if young Nigel says he's happy 
           G 
He must be happy 
           F#m 
He must be happy 
                        E
He must be happy in his work 

A          F#m              C#m
We're only making plans for Nigel 
A          F#m              C#m
He has his future in a British steel 
A          F#m              C#m
We're only making plans for Nigel 
A          F#m              C#m
Nigel's whole future is as good as sealed 

Bm                           A
And if young Nigel says he's happy 
           G
He must be happy 
           F#m          
He must be happy 
                        E
He must be happy in his work

F# 
Nigel is not outspoken
G 
But he likes to speak
D                     A 
And loves to be spoken to

G        F#m          A    G#
Nigel is happy in his work 
G        F#m          A    G#
Nigel is happy in his work 
G        F#m          E
Nigel is happy in his work  

            
            
Suggest correction
Creating personal tab
Creating personal tab
You can edit any tab online and save it as your Personal.

You can edit, replace or remove any tab part or add personal notes – all changes will be seen only by you.

Personal tabs can be accessed anytime from any device, even offline.
Learn more »
Give kudos to tab author, rate the tab!
1 2 3 4 5
comments
print report bad tab
guest
You may want to rate the tab now too:
select rating
Wanna post a correction for this tab? Suggest correction