Oops, an error
Loading. Please wait.

Heartfelt solo tab

version 1
version 1

Solo

Interactive

502 views 24 this week
no commentswrite comment
1 2 3 4 5
1 last vote to show rating
add to favorites
×
Save as Personal and add changes to this tab that will be seen only by you. Learn more ›
×
You can save this tab as Personal to edit and correct it or add notes. All changes will be seen only by you. Learn more »
launch autoscroll
font size
0
reset
how to read this tab
guitar tuner
edit
Autoscroll
slow
fast
+/-
esc
set tempo
stop
Author
Difficulty
(This song is technically in drop A on a 7 string but the solo portion is the same on a 6 or 7)
I learned this by ear and watching the playthrough video on youtube so this should be pretty close as it looks
and sounds like what he is playing. 
In truth, a Japanese Ibanez 7 string is the only real man's choice for playing this song ;)
Enjoy!

[SOLO]
e|-------------------------------------------------------10-------14-10------|
B|----------------------------------------10-14----10-14----14-10-------14-10|
G|---------------------------7-11----7-11-------11---------------------------|
D|---------------7-11---7-11------11-----------------------------------------|
A|-----5-9---5-9------9------------------------------------------------------|
E|-5-7-----7-----------------------------------------------------------------|

    (pick and hammer on these notes)                   (Alternate pick these)
e|17-14--------17b(19)---------------------17--------------------------------|
B|------15-14------------------------14-15----15-14--------------------------|
G|--------------------------------------------------16-14---16/(18)~~--------|
D|--------------------------------------------------------16-----------------|
A|---------------------------------------------------------------------------|
E|---------------------------------------------------------------------------|

e|---------------------------------------------------------------------------|
B|--10h12-10/12h14-----------------------------------------------17-15b(17)17|
G|-----------------12/14h16--16\11----6b(7)----------------16-14-------------|
D|-------------------------------------------7/9-----16-14-------------------|
A|---------------------------------------------------------------------------|
E|---------------------------------------------------------------------------|

                    (pick that last 17 while still holding the full step 15 bend)
e|-------------------------------------------------------------------------------|
B|--15b(17)----15~~~~---14b(15)--12-------12-10----------------------------------|
G|-----------------------------------11\9-------11-9------11-9----------7-9---7-9|
D|---------------------------------------------------12-9------12-9\7 9-----9----|
A|-------------------------------------------------------------------------------|
E|-------------------------------------------------------------------------------|

e|-------------7-9-7------10-7------12-10-------14-10----17-14----19-14------|
B|-7-10---7-10-------10-7------10-7-------12-10-------12-------15-------17---|
G|------9--------------------------------------------------------------------|
D|---------------------------------------------------------------------------|
A|---------------------------------------------------------------------------|
E|---------------------------------------------------------------------------|

e|--21-17--19b(21) 20--19~~~--------19b(21)-20-br19--17--17------------------|
B|----------------------------------------------------------19\17-15---------|
G|-------------------------------------------------------------------16-14-16|
D|---------------------------------------------------------------------------|
A|---------------------------------------------------------------------------|
E|---------------------------------------------------------------------------|
(hit the 20 while holding the full step bend on 19. the second time bend release back to 19 after the 20)


e|---------------------------------------------------------------------------|
B|---------------------------------------------------------------------------|
G|--14-------------------7---------------------------------------------------|
D|-----16\14--12------9-----9------------------------------------------------|
A|---------------------------------7b(9)br7---5-7-5--------------------------|
E|---------------------------------------------------------------------------|
                                                      
e|-----------------------------------7-9-10-9-7-----14-10-7------------------|
B|----------------------------7-8----------------------------14-10-7---------|
G|--------------------4-6/7--------------------------------------------------|
D|----------------4-5--------------------------------------------------------|
A|------2-4/5----------------------------------------------------------------|
E|--2-3----------------------------------------------------------------------|

                                                      (tapping part)
e|-------------------------------------------------------------------------|
B|-15-10-7-14-10-7------------------------------------------------12/14-12-|
G|-------------------14-9-7--------14-9-7----------------9/11-9------------|
D|--------------------------14-9-7--------14-9-7------9--------------------|
A|-------------------------------------------------------------------------|
E|-------------------------------------------------------------------------|

    (more stapping...)                               (stop tapping lol)
e|---------------------------------------------5---------------------------|
B|------------5/7-5---------------------5/7-5-----5/7----------------------|
G|-----4-6-7---------6b7-4~~~-----4-6-7------------------------------------|
D|--4---------------------------4------------------------------------------|
A|-------------------------------------------------------------------------|
E|-------------------------------------------------------------------------|

e|---------------12/14-12----------------------------12/14-12------17---19~~~|
B|----12-14-15---------------14b(15)-12------12-14-15------------------------|
G|-11-------------------------------------11---------------------------------|
D|---------------------------------------------------------------------------|
A|---------------------------------------------------------------------------|
E|---------------------------------------------------------------------------|



************************************

| h   Hammer-on
| /   Slide up
| \   Slide down
| ~   Vibrato
| br  Bend release
| b   Bend
 

************************************

            
            
Suggest correction
Creating personal tab
Creating personal tab
You can edit any tab online and save it as your Personal.

You can edit, replace or remove any tab part or add personal notes – all changes will be seen only by you.

Personal tabs can be accessed anytime from any device, even offline.
Learn more »
Give kudos to tab author, rate the tab!
1 2 3 4 5
comments
print report bad tab
guest
You may want to rate the tab now too:
select rating
Wanna post a correction for this tab? Suggest correction