Oops, an error
Loading. Please wait.

Anchor tab

version 2
version 2

Whole song

5,632 views 99 this week
2 commentsread comments
1 2 3 4 5
x 13
add to favorites
×
Save as Personal and add changes to this tab that will be seen only by you. Learn more ›
×
You can save this tab as Personal to edit and correct it or add notes. All changes will be seen only by you. Learn more »
launch autoscroll
font size
0
reset
how to read this tab
guitar tuner
edit
Autoscroll
slow
fast
+/-
esc
set tempo
stop
-------------------------------------------------------------------------------
                             Anchor - NOVO AMOR
-------------------------------------------------------------------------------
Tabbed by: Naoto

I LISTENED TO THE MUSIC VIDEO AT HALF SPEED TO TAB THIS. HOPE IT HELPS YOU OUT. 

Tuning: Open D -  DADF#Ad

[Verse]
"Took the breath from my open mouth..."

d|---------------------------------------------------------------------------|
A|-------------------0-------------------------------------------------------|
F#|--------7-----------------------------------------------------------------|  4x
D|---------------------------------------------------------------------------|
A|-------------7-------------------------------------------------------------|
D|-----7---------------------------------------------------------------------|

d|---------------------------------------------------------------------------|
A|-------------------0-------------------------------------------------------|
F#|--------7-----------------------------------------------------------------|  4x
D|---------------------------------------------------------------------------|
A|-------------0-------------------------------------------------------------|
D|-----0---------------------------------------------------------------------|

d|---------------------------------------------------------------------------|
A|-------------------0-------------------------------------------------------|
F#|--------2-----------------------------------------------------------------|  2x
D|-------------2-------------------------------------------------------------|
A|---------------------------------------------------------------------------|
D|-----2---------------------------------------------------------------------|

d|---------------------------------------------------------------------------|
A|-------------------0-------------------------------------------------------|
F#|--------3-----------------------------------------------------------------|  1x
D|-------------4-------------------------------------------------------------|
A|---------------------------------------------------------------------------|
D|-----4---------------------------------------------------------------------|

d|---------------------------------------------------------------------------|
A|-------------------0-------------------------------------------------------|
F#|--------7-----------------------------------------------------------------|  1x
D|---------------------------------------------------------------------------|
A|-------------7-------------------------------------------------------------|
D|-----7---------------------------------------------------------------------|

d|---------------------------------------------------------------------------|
A|---------------------------------------------------------------------------|
F#|--------------------------------------------------------------------------|  4x
D|------------------7--------------------------------------------------------|
A|----------9----------------------------------------------------------------|
D|-----0--------0------------------------------------------------------------|

Chorus: "And i hear your ship is comin’ in..."

d|---------------------------------------------------------------------------|
A|-------------------0-------------------------------------------------------|
F#|--------3-----------------------------------------------------------------|  2x
D|---------------------------------------------------------------------------|
A|-------------4-------------------------------------------------------------|
D|-----4---------------------------------------------------------------------|

d|---------------------------------------------------------------------------|
A|-------------------0-------------------------------------------------------|
F#|--------7-----------------------------------------------------------------|  2x
D|---------------------------------------------------------------------------|
A|-------------7-------------------------------------------------------------|
D|-----7---------------------------------------------------------------------|

d|---------------------------------------------------------------------------|
A|---------------------------------------------------------------------------|
F#|--------------------------------------------------------------------------|  4x
D|------------------7--------------------------------------------------------|
A|----------9----------------------------------------------------------------|
D|-----0--------0------------------------------------------------------------|

Bridge: "Anchor up to me, love..."

d|---------------------------------------------------------------------------|
A|-------------------0-------------------------------------------------------|
F#|--------2-----------------------------------------------------------------|  2x
D|-------------2-------------------------------------------------------------|
A|---------------------------------------------------------------------------|
D|-----2---------------------------------------------------------------------|

d|---------------------------------------------------------------------------|
A|-------------------0-------------------------------------------------------|
F#|--------3-----------------------------------------------------------------|  2x
D|-------------4-------------------------------------------------------------|
A|---------------------------------------------------------------------------|
D|-----4---------------------------------------------------------------------|

d|---------------------------------------------------------------------------|
A|---------------------------------------------------------------------------|
F#|--------------------------------------------------------------------------|  4x
D|------------------7--------------------------------------------------------|
A|----------9----------------------------------------------------------------|
D|-----0--------0------------------------------------------------------------|

Bridge 2/Build: "Anchor up to me...my love, my love.."

Down strum as chords


d|---------------------------------------------------------------------------|
A|-----2---------------------------------------------------------------------|
F#|----2---------------------------------------------------------------------|  8x
D|-----2---------------------------------------------------------------------|
A|---------------------------------------------------------------------------|
D|-----2---------------------------------------------------------------------|

d|---------------------------------------------------------------------------|
A|-----0---------------------------------------------------------------------|
F#|----3---------------------------------------------------------------------|  4x
D|-----4---------------------------------------------------------------------|
A|---------------------------------------------------------------------------|
D|-----4---------------------------------------------------------------------|

d|---------------------------------------------------------------------------|
A|-----0---------------------------------------------------------------------|
F#|----5---------------------------------------------------------------------|  4x
D|-----6---------------------------------------------------------------------|
A|---------------------------------------------------------------------------|
D|-----6---------------------------------------------------------------------|

d|---------------------------------------------------------------------------|
A|---------------------------------------------------------------------------|
F#|----7---------------------------------------------------------------------|  12x
D|-----7---------------------------------------------------------------------|
A|---------------------------------------------------------------------------|
D|-----7---------------------------------------------------------------------|

d|---------------------------------------------------------------------------|
A|-----0---------------------------------------------------------------------|
F#|----8---------------------------------------------------------------------|  4x
D|-----9---------------------------------------------------------------------|
A|---------------------------------------------------------------------------|
D|-----9---------------------------------------------------------------------|

d|---------------------------------------------------------------------------|
A|---------------------------------------------------------------------------|
F#|----7---------------------------------------------------------------------|  4x
D|-----7---------------------------------------------------------------------|
A|---------------------------------------------------------------------------|
D|-----7---------------------------------------------------------------------|

d|---------------------------------------------------------------------------|
A|-----0---------------------------------------------------------------------|
F#|----3---------------------------------------------------------------------|  4x
D|-----4---------------------------------------------------------------------|
A|---------------------------------------------------------------------------|
D|-----4---------------------------------------------------------------------|

d|---------------------------------------------------------------------------|
A|-----2---------------------------------------------------------------------|
F#|----2---------------------------------------------------------------------|  16x
D|-----2---------------------------------------------------------------------|
A|---------------------------------------------------------------------------|
D|-----2---------------------------------------------------------------------|

d|-----0---------------------------------------------------------------------|
A|-----0---------------------------------------------------------------------|
F#|----0---------------------------------------------------------------------|  ring
D|-----7---------------------------------------------------------------------|
A|-----9---------------------------------------------------------------------|
D|-----0---------------------------------------------------------------------|

[Outro]

Ring chorus chords

            
            
Suggest correction
Creating personal tab
Creating personal tab
You can edit any tab online and save it as your Personal.

You can edit, replace or remove any tab part or add personal notes – all changes will be seen only by you.

Personal tabs can be accessed anytime from any device, even offline.
Learn more »
comments
print report bad tab
2 comments total.
0 reply
joshsimcoe98 10 Mar 21, 2016 06:40 PM

I've been looking for the chords for this forever, thank you!

0 reply
darktreker 22 Mar 09, 2017 01:34 AM, edited at 06:42 am

Thank You! well done! I corrected one word in the lyrics. "on" to me is actually "up" to me

guest
Wanna post a correction for this tab? Suggest correction