Oops, an error
Loading. Please wait.

Anchor tab

version 3
version 3

Whole song

1,417 views 27 this week
1 commentread comment
1 2 3 4 5
x 3
add to favorites
×
Save as Personal and add changes to this tab that will be seen only by you. Learn more ›
×
You can save this tab as Personal to edit and correct it or add notes. All changes will be seen only by you. Learn more »
launch autoscroll
font size
0
reset
how to read this tab
guitar tuner
edit
Autoscroll
slow
fast
+/-
esc
set tempo
stop
Author
About this tab version
More accurate representation of original song. Was this info helpful? Yes No
Version 3. 

I couldn't find a tab nearly accurate enough so I think this is the best one available, not perfect 
though, not difficult either. Enjoy

Drop D tuning.


[Intro]

e|---------------------------------------------------------------------------|
B|----2-----------2-----------2-----------2-----------2-----------2----------|
G|----------2-----------2-----------2-----------2-----------2-----------2----|
D|-------2-----------2-----------2-----------2-------------------------------|
A|-0-----------0-----------0-----------0-----------------0-----------0-------|
d|-------------------------------------------------0-----------0-------------|


e|---------------------------------------------------------------------------|
B|----2------------2---------------------------------------------------------|
G|-----------2-----------2-----1-----2-----1-----2-----------2-----6---------|
D|-----------------------------------------------------4-----------------7---|
A|-------0------------0-----------2-----------2-----------4-----------7------|
d|-0------------0-----------2-----------2-----------4-----------7------------|


e|--------------------------------------------------|
B|--------------------------------------------------|
G|----------2-----------2-----------2-----------2---|       (Repeat through verses til chorus)
D|----4-----------4-----------4-----------4---------|
A|-------0-----------0-----------0-----------0------|
d|-0-----------0-----------0-----------0------------|


[Chorus]

"And I hear your ship is coming in"


e|------------------------------------------------------------------------------------------------|
B|------------------------------------------------------------------------------------------------|
G|----------2-----------2-----6-----------6-----------------2-----------2-----------2-----------2-|
D|----4-----------4-----------------7-----------7-----4-----------4-----------4-----------4-------| (Repeat
A|-------4-----------4-----------7-----------7-----------0-----------0-----------0-----------0----|   til
E|-4-----------4-----------7-----------7-----------0-----------0-----------0-----------0----------|  verse)

            
            
Suggest correction
Creating personal tab
Creating personal tab
You can edit any tab online and save it as your Personal.

You can edit, replace or remove any tab part or add personal notes – all changes will be seen only by you.

Personal tabs can be accessed anytime from any device, even offline.
Learn more »
Give kudos to tab author, rate the tab!
1 2 3 4 5
comments
print report bad tab
1 comment total.
+1 reply
maksimpetrov1 10 Sep 04, 2016 03:20 PM

if someone would make video tutorial it would be great, because i cant understand, it doesn't sounds

guest
You may want to rate the tab now too:
select rating
Wanna post a correction for this tab? Suggest correction