Oops, an error
Loading. Please wait.

Thread Tab

version 1
version 1

Acoustic

Whole song

6,640 views 12 this week
4 commentsread comments
1 2 3 4 5
excellent!
x 7
add to favorites
launch autoscroll
font size
0
reset
how to read this tab
guitar tuner
Tab Pro tools
  • play this tab
  • loop segment
  • change instrument
  • show fretboard
  • metronome
×
Best way to learn
"Thread"
Autoscroll
slow
fast
+/-
esc
set tempo
stop
Contributor
-------------------------------------------------------------------------------
                                  THREAD (acoustic) - Now Now
-------------------------------------------------------------------------------
Tabbed by: Patrick Bozek
E-mail: patrick_bozek@hotmail.com

Tuning: DAC#EBe

PAY ATTENTION TO THE TUNING! It isn't in standard, so this tab will sound off
if you try to play it in standard tuning. The third string G is tuned 2 steps
down to an E and the fourth string D is tuning half a step down. Finally, the
sixth string is just a step down to D/ Didn't include strumming patterns,
they're all downstrokes for the most part; just watch the acoustic version here:

http://www.youtube.com/watch?v=0CJiMjAbw5Q


Intro: Guitar 1
e |------------------|  x2
B |------------------|
E |------------------|
C#|--8---10--8---5---|
A |--0---9---7---0---|
D |--0---9---7---0---|

Intro: Guitar 2 (alternate picking)
e |------------------|  x2
B |------------------|
E |------------------|
C#|--12--13--15--17--|
A |------------------|
D |------------------|

Verse:
e |-----------------|   x4
B |-----------------|
E |-----------------|
C#|--12---13---12---|
A |--12----9----7---|
D |--12----9----7---|

Chorus: Guitar 1
e |--------------------------|
B |--------------------------|
E |--------------------------|
C#|--8--8--7--8--8--8--7--8--|
A |--5--4--7--5--5--4--7--5--|
D |-----------0--7--7-----0--|

Chorus: Guitar 2
e |--------------------------|
B |--------------------------|
E |--------------------------|
C#|--7--8--8--0--5--3-----0--|
A |--0--9--7--0--2--4--2--0--|
D |--0--------0--------2--0--|

Solo/outro: Guitar 1
e |---------------------------|---------------|   x4
B |---------------------------|---------------|
E |--14--10--17------4---9----|--10-----------|
C#|--12---9--16--4---2---7----|---9-----------|
A |--12---9--16--4---2---7----|---8-----------|
D |--12---9--16--4---2---7----|---0-----------|

Solo/outro: Guitar 2 (alternate picking; each note change corresponds to the 
chord changes, except for the second bar)
e |------------------14-------|---------------|   x4
B |----------14----------14---|----------14---|
E |--14--12-------------------|--14--14-------|
C#|--------------12-----------|---------------|
A |---------------------------|---------------|
D |---------------------------|---------------|

Interlude: Guitar 2
e |--------------------------|
B |--------------------------|
E |--------------------------|
C#|--7--8--8--0--5--3-----0--|
A |--0--9--7--0--2--4--2--0--|
D |--0--------0--------2--0--|

Song order:
Intro
Verse
Chorus
Verse
Chorus
Solo
Interlude
Chorus
Outro


Cheers!
comments
print report bad tab
4 comments total. Showing first comments.
0 reply
ForeverFlux wrote on January 17 2013, 03:10 pm

The Solo/outro for guitar one doesn't sound right.

0 reply
Kurt-Corgan wrote on January 17 2013, 09:12 pm

Did you remember to tune the 3rd string down 2 steps to E?

It's exactly what jess plays, here's it all written out:


e |-------------------------------------------14-14--------|
B |-------------------------14-14-14-14-------------14-14--|
E |-14-14-14-14-12-12-12-12--------------------------------|
C#|-------------------------------------12-12--------------|
A |--------------------------------------------------------|
D |--------------------------------------------------------|

e |--------------------------------------------------------|
B |-------14--------14--------14--------14----------14-----|
E |-14-14-----14-14-----14-14-----14-14-----14--14---------|
C#|--------------------------------------------------------|
A |--------------------------------------------------------|
D |--------------------------------------------------------|

0 reply
Kurt-Corgan wrote on January 17 2013, 09:30 pm

oh opps, my bad, yeah, guitar one is tricky to get the rhythm right because the last 2 chords of the riff are all over the place.

I want to post or [tab]
guest
You may want to rate the tab now too:
select rating
Please do not post tabs as comments. Select "correction" instead!