Oops, an error
Loading. Please wait.

Wolf Tab

version 1
version 1

Whole song

Interactive

7,563 views 33 this week
no commentswrite comment
1 2 3 4 5
excellent!
x 5
add to favorites
launch autoscroll
font size
0
reset
how to read this tab
guitar tuner
Autoscroll
slow
fast
+/-
esc
set tempo
stop
Help us to improve Ultimate-Guitar.com Take our survey!
×
Contributor
Difficulty
novice
-------------------------------------------------------------------------------
                                                  WOLF - Now Now
-------------------------------------------------------------------------------
Tabbed by: Patrick Bozek
E-mail: patrick_bozek@hotmail.com

Tuning: EAC#EBe

PAY ATTENTION TO THE TUNING. The entire song's strumming pattern is just down-
strokes. Pretty straight forward, just have a look at one of their live versions
and you'll get a pretty good idea of how it sounds (i.e. Audiotree session):

http://www.youtube.com/watch?v=AInwQRyn76I

Intro/Verse: Guitar 1
e |-------------------------------------------------------------------|
B |-------------------------------------------------------------------|
E |-------------------------------------------------------------------|
C#|-------------------------------------------------------------------|
A |-------------------------------------------------------------------|
E |--2-2-2-2-2-2-2-2-2-2-2-2-2-2-2-2-4-4-4-4-4-4-4-4-4-4-4-4-4-4-4-4--|

e |---------------------------------------------------------------------------| x4
B |---------------------------------------------------------------------------|
E |---------------------------------------------------------------------------|
C#|---------------------------------------------------------------------------|
A |---------------------------------------------------------------------------|
E |--6-6-6-6-6-6-6-6-6-6-6-6-6-6-6-6-11-11-11-11-11-11-11-11-9-9-9-9-9-9-9-9--|

Intro/Verse: Guitar 2 (PALM MUTE)
e |-------------------------------------------------------------------|
B |-------------------------------------------------------------------|
E |--9-9-9-9-9-9-9-9-9-9-9-9-9-9-9-9-9-9-9-9-9-9-9-9-9-9-9-9-9-9-9-9--|
C#|--9-9-9-9-9-9-9-9-9-9-9-9-9-9-9-9----------------------------------|
A |----------------------------------9-9-9-9-9-9-9-9-9-9-9-9-9-9-9-9--|
E |-------------------------------------------------------------------|

e |-------------------------------------------------------------------| x4
B |-------------------------------------------------------------------| 
E |--9-9-9-9-9-9-9-9-9-9-9-9-9-9-9-9-9-9-9-9-9-9-9-9-9-9-9-9-9-9-9-9--|
C#|-------------------------------------------------------------------|
A |--8-8-8-8-8-8-8-8-8-8-8-8-8-8-8-8-9-9-9-9-9-9-9-9-9-8-8-8-8-8-8-8--|
E |-------------------------------------------------------------------|

Pre-chorus: Guitar 1
e |-----------------------------------|
B |-----------------------------------|
E |-----------------------------------|
C#|-----------------------------------|
A |-----------------------------------|
E |--2-2-2-2-2-2-2-2-2-2-2-2-2-2-2-2--|

Pre-chorus: Guitar 2
e |-----------------------------------|
B |-----------------------------------|
E |--9-9-9-9-9-9-9-9-9-9-9-9-9-9-9-9--|
C#|--9-9-9-9-9-9-9-9-9-9-9-9-9-9-9-9--|
A |-----------------------------------|
E |-----------------------------------|

Chorus: Guitar 1
e |-------------------------------------------------------------------| 
B |-------------------------------------------------------------------| 
E |-------------------------------------------------------------------|
C#|----------------------------------9-9-9-9-9-9-9-9-9-9-9-9-9-9-9-9--|
A |--4-4-4-4-4-4-4-4-4-4-4-4-4-4-4-4-6-6-6-6-6-6-6-6-6-6-6-6-6-6-6-6--|
E |--6-6-6-6-6-6-6-6-6-6-6-6-6-6-6-6----------------------------------|

e |-------------------------------------------------------------------| x2
B |-------------------------------------------------------------------|
E |-------------------------------------------------------------------|
C#|-------------------------------------------------------------------|
A |--1-1-1-1-1-1-1-1-1-1-1-1-1-1-1-1-3-3-3-3-3-3-3-3-3-3-3-3-3-3-3-3--|
E |--2-2-2-2-2-2-2-2-2-2-2-2-2-2-2-2-4-4-4-4-4-4-4-4-4-4-4-4-4-4-4-4--|

Chorus: Guitar 2
e |-----------------------------------------------------------------------------------|
B |-----------------------------------------------------------------------------------|
E |--9-9-9-9-9-9-9-9-9-9-9-9-9-9-9-9-9--9--9--9--9--9--9--9--9--9--9--9--9--9--9--9---|
C#|--9-9-9-9-9-9-9-9-9-9-9-9-9-9-9-9-11-11-11-11-11-11-11-11-11-11-11-11-11-11-11-11--|
A |-----------------------------------------------------------------------------------|
E |-----------------------------------------------------------------------------------|

e |-----------------------------------------------------------------------------------| x2
B |-----------------------------------------------------------------------------------|
E |--11-11-11-11-11-11-11-11-11-11-11-11-11-11-11-11-11-11-11-11-11-11-11-11-11-11-11-|
C#|--12-12-12-12-12-12-12-12-12-12-12-12-12-12-12-12-12-12-12-12-12-12-12-12-12-12-12-|
A |-----------------------------------------------------------------------------------|
E |-----------------------------------------------------------------------------------|

Bridge: Guitar 1
e |-------------------------------------------------------------------| x2
B |-------------------------------------------------------------------|
E |-------------------------------------------------------------------|
C#|-------------------------------------------------------------------|
A |--4-4-4-4-4-4-4-4-4-4-4-4-4-4-4-4-3-3-3-3-3-3-3-3-3-3-3-3-3-3-3-3--|
E |--6-6-6-6-6-6-6-6-6-6-6-6-6-6-6-6-4-4-4-4-4-4-4-4-4-4-4-4-4-4-4-4--|

e |-------------------------------------------------------------------|
B |-------------------------------------------------------------------|
E |-------------------------------------------------------------------|
C#|-------------------------------------------------------------------|
A |--1-1-1-1-1-1-1-1-1-1-1-1-1-1-1-1-2-2-2-2-2-2-2-2-2-2-2-2-2-2-2-2--|
E |--2-2-2-2-2-2-2-2-2-2-2-2-2-2-2-2-4-4-4-4-4-4-4-4-4-4-4-4-4-4-4-4--|

e |------------------------------------------------------------------------------------|
B |------------------------------------------------------------------------------------|
E |------------------------------------------------------------------------------------|
C#|------------------------------------------------------------------------------------|
A |--9--9--9--9--9--9--9--9--9--9--9--9--9--9--9--9--1-1-1-1-1-1-1-1-1-1-1-1-1-1-1-1-1-|
E |--11-11-11-11-11-11-11-11-11-11-11-11-11-11-11-11-2-2-2-2-2-2-2-2-2-2-2-2-2-2-2-2-2-|


The END!

Order:
Intro/Verse
Pre-chorus
Chorus
Verse
Chorus
Bridge
Chorus
comments
print report bad tab
I want to post or [tab]
guest
You may want to rate the tab now too:
select rating
Please do not post tabs as comments. Select "correction" instead!