Oops, an error
Loading. Please wait.

Insomnio bass

14 views 1 this week
no commentswrite comment
1 2 3 4 5
2 more votes to show rating
add to favorites
×
Save as Personal and add changes to this tab that will be seen only by you. Learn more ›
×
You can save this tab as Personal to edit and correct it or add notes. All changes will be seen only by you. Learn more »
launch autoscroll
font size
0
reset
guitar tuner
edit
Autoscroll
slow
fast
+/-
esc
set tempo
stop
INTRO
----------------
----------------
4---4---4---4---
----------------


Me he vuelto a olvidar, una noche mas?


-------------------------------------------------
-------------------------------------------------
4-4-44-44-44------------1-1-11-11-11-------------
------------2-2-22-22-22------------4-4-44-44-44-

---------------------------------------------------------
---------------------------------------------------------
4-4-44-44-44------------1-1-11-11-11------------44444444-
------------2-2-22-22-22------------4-4-44-44-44---------


No se, que me esta pasando, que me estan hablando?
x2
----------------------------------------
-64 444---------31 111------------------
4-------64 444-1-------86 666-----------
-------2--------------4-----------------


Y no puedo dormir, desde que tu empezaste a rondar
por aquí?

------------------------------------------------------
--4--6--8--6--4--6--8--6?-4--6--8--6--4---------------
-------------------------------------------44---44----
22-44-66-44-22-44-66-44-22-44-66-44-22-444------------


Mi jefe, ya me esta avisando, que me estoy pasando?
x2

--------------------------------
--------------------------------
44--------------11--------------
--------22--------------4-44-444

Y no puedo dormir, desde que tu empezaste a rondar
por aquí?

------------------------------------------------------
--4--6--8--6--4--6--8--6?-4--6--8--6--4---------------
-------------------------------------------44---44----
22-44-66-44-22-44-66-44-22-44-66-44-22-444------------

He vuelto a perder, por tercera vez?
x2
-------------------------------------------------
-------------------------------------------------
4-4-44-44-44------------1-1-11-11-11-------------
------------2-2-22-22-22------------4-4-44-44-44-

Ya me he decidido, por fin te lo he dicho?
x2
---------------------------------
---------------------------------
11111111--------11111111---------
--------22222222--------44444444-

EN EL PUNTEO DE GUITARRA VA ESTA LINEA POR DEBAJO
x2
---------------------------------
---------------------------------
11111111--------44444444---------
--------22222222--------44444444-


He vuelto a perder, por tercera vez
x2
-------------------------------------------------
-------------------------------------------------
4-4-44-44-44------------1-1-11-11-11-------------
------------2-2-22-22-22------------4-4-44-44-44-

He vuelto a perder?

--------------------------------------------------
--------------------------------------------------
4-4444--------1-1111------------------------------
-------2-2222--------4-4444-----------------------


Ahora que hemos hablado se que voy a poder x fin dormir

--------------------------------------
--------------------------------------
1----------------------------444444---
-------2------4------2----------------


PUEDE QUE ALGUNA NOTA NO SEA LA CORRECTA PERO ASI CREO QUE
SUENA BIEN. NOS VEMOS Y PASARLO BIEN.

            
            
Suggest correction
Creating personal tab
Creating personal tab
You can edit any tab online and save it as your Personal.

You can edit, replace or remove any tab part or add personal notes – all changes will be seen only by you.

Personal tabs can be accessed anytime from any device, even offline.
Learn more »
Give kudos to tab author, rate the tab!
1 2 3 4 5
comments
print report bad tab
guest
Wanna post a correction for this tab? Suggest correction