Oops, an error
Loading. Please wait.

Brain Cell Tab

19 views 1 this week
no commentswrite comment
1 2 3 4 5
3 more votes to show rating
add to favorites
launch autoscroll
font size
0
reset
how to read this tab
guitar tuner
Autoscroll
slow
fast
+/-
esc
set tempo
stop
Help us to improve Ultimate-Guitar.com Take our survey!
×
Author
Difficulty
novice
[Verse I]
e|--------------------------------|
B|--------------------------------|
G|--5--6-----1-----3--------------|
D|--------------------------------|  x3
A|--------------------------------|
E|--6--------1-----2--------------|

e|--------------------------------|
B|--------------------------------|
G|--------------------------------|
D|--3-----------------------------|  
A|-----let-ring-------------------|
E|--2-----------------------------|

[Verse II]
e|--------------------------------|
B|--------------------------------|
G|--5--6-----1-----3--------------|
D|--------------------------------|  x7
A|--------------------------------|
E|--6--------1-----2--------------|

e|--------------------------------|
B|--------------------------------|
G|--------------------------------|
D|--3-----------------------------|  
A|-----let-ring-------------------|
E|--2-----------------------------|

[Verse III]
e|--------------------------------|
B|--------------------------------|
G|--5--6-----1-----3--------------|
D|--------------------------------|  x13
A|--------------------------------|
E|--6--------1-----2--------------|

e|--------------------------------|
B|--------------------------------|
G|--------------------------------|
D|--3-----------------------------|  
A|-----let-ring-------------------|
E|--2-----------------------------|
Suggest correction
Give kudos to tab author, rate the tab!
1 2 3 4 5
comments
print report bad tab
guest
You may want to rate the tab now too:
select rating
Wanna post a correction for this tab? Suggest correction