Oops, an error
Loading. Please wait.

Yo Te Voy Amar tab

version 2
version 2

Whole song

by N'sync
72 views 1 this week
no commentswrite comment
1 2 3 4 5
3 more votes to show rating
add to favorites
×
Save as Personal and add changes to this tab that will be seen only by you. Learn more ›
×
You can save this tab as Personal to edit and correct it or add notes. All changes will be seen only by you. Learn more »
launch autoscroll
font size
0
reset
how to read this tab
guitar tuner
edit
Autoscroll
slow
fast
+/-
esc
set tempo
stop
Introduccion :
1)-----------------/
2)-----7-----------/
3)-3/7---------9---/
4)---------3/7-----/
5)-----------------/
6)-----------------/

1)-------0-1-2--1/2/1-0-----1-------------------------------/
2)---3-3----------------3-3------3-3/5---3-2/3/2-0----------/
3)-----------------------------2-----------------------2/4--/
4)---------------------------------------------------0------/
5)----------------------------------------------------------/
6)----------------------------------------------------------/

Versos:
1)----------1--------------2-----------------------------2--/   .
2)---0-----------------2-3------------------------2---------/     .
3)-------2-----------4----------4--2-2-----2/4---------4----/       .
4)-----2-----------4-------------------0-2-----------4------/       .   (1)
5)---0-----------2--------------------------------2---------/     .
6)----------------------------------------------------------/   .

1)---------1----------2-----2.---------/  .
2)---0---------2---------------5.--3.--/    .
3)-------2----------4------------------/      .
4)-----2----------4--------------------/      .   (2)
5)---0---------2-----------------------/    .
6)-------------------------------------/  .

1)---------1----------2------------------------/  .
2)---0---------2---------------3.-2/3/2-0------/    .
3)-------2----------4---------------------2----/      .
4)-----2----------4----------------------------/      .   (3)
5)---0---------2-------------------------------/    .
6)---------------------------------------------/  .

Los acordes se tocan en cada estrofa indicada:

(1)
LA                 SIm
Cuando sientas tristeza
SOL             LA
Que no puedas calmar
(1)
LA              SIm
Cuando haya un vacío
SOL             LA
Que no puedas llenar
(2)
MIm
Te abrazaré
    LA
Te haré olvidar
RE         LA       SIm
Lo que te hizo sufrir
(3)
SOL
No vas a caer
MIm                        LA
Mientras que estés junto a mi

Coro:
RE                   LA
Si siente un frío tu corazón
SIm             SOL
Seré tu abrigo, tu ilusión
RE               LA
Hasta ya no respirar
        SOL
Yo te voy amar
LA         RE
Yo te voy amar

(1)
LA            SIm
YO SIEMPRE TE AMADO
SOL         LA
Y, AMOR YO ESTARE
(1)
LA               SIm
POR SIEMPRE A TU LADO
SOL         LA
NUNCA ME ALEJARE
(2)
MIm
PROMETO MI AMOR
     LA
TE JURO ANTE DIOS (Te juro ante Dios)
RE       LA      SIm
NUNCA TE VOY A FALTAR
(3)
SOL
TU CORAZON
LA
NO VOLVERA A LLORAR OH,

Coro:
MIm
si siente un frío(SIENTE UN FRIO)
SIm
Tu corazón(TU CORAZON)
DO              LA
Seré tu abrigo, (TU ILUCION)
    MI               SIm
Oh, HASTA YA NO RESPIRAR
          LA
YO TE VOY AMAR
          LA
YO TE VOY AMAR
MIm             LA
SIGO MURIENDO POR TI(Sigo muriendo por ti)
MIm         LA
YO TE QUIERO ASI
        RE
SIN TU  AMOR
       LA
EN MI VIDA, MI VIDA
    SOL               LA
NO SE COMO PODRE YO VIVIR
MI
Si siente un frío(SIENTE UN FRIO)
SI
Tu corazón(TU CORAZON)
DO              LA
Seré tu abrigo, (TU ILUCION)
MI             SIm
HASTA YA NO RESPIRAR
            LA
YO TE VOY AMAR
MI           SIm
Y cada día No viviré (E INTENTARE)
      DO            LA
Intentando cómo te voy a querer, Oh
MI              SIm
HASTA YA NO RESPIRAR
          LA
YO TE VOY AMAR
MI               SIm
Hasta ya no respirar
            LA
Yo te voy amar
            MI
Yo te voy amar


..........................................................
Bueno los acordes musicales estan perfectamente ordenados,
el TAB es una obra mia ke les permitira tocar facilmente y
en ke lugar especificamente se tocan.

Obra y arreglo: Willy Guzman Mamani Quispe
                juliaca - Peru
Tema Dedicado : El siguiente tema va dedico para mi señora
                Yumi Kelita Cueva Cumapa
                que se encuentra en la ciudad de pucallpa.
                Te amo Yumi Kelita, Eres el amor de mi vida,
                este tema va dedicado para ti mi vida,
                Nsync - Yo te voy amar
                como dicen en sus letras
                hasta ya no respirar yo te voy amar.

Agradesco a  por brindarme este espacio y
publicar mi TAB.

 WILLYUMI por siempre juntos hasta ke la muerte nos separe.
          Y por siempre !QUE VIVA EL AMOR!
...........................................................

            
            
Suggest correction
Creating personal tab
Creating personal tab
You can edit any tab online and save it as your Personal.

You can edit, replace or remove any tab part or add personal notes – all changes will be seen only by you.

Personal tabs can be accessed anytime from any device, even offline.
Learn more »
Give kudos to tab author, rate the tab!
1 2 3 4 5
comments
print report bad tab
guest
Wanna post a correction for this tab? Suggest correction