Oops, an error
Loading. Please wait.

Critical Mass Tab

version 2
version 2

Whole song

Interactive

6,315 views 9 this week
no commentswrite comment
1 2 3 4 5
please rate
add to favorites
launch autoscroll
font size
0
reset
how to read this tab
guitar tuner
Tab Pro tools
  • play this tab
  • loop segment
  • change instrument
  • show fretboard
  • metronome
×
Best way to learn
"Critical Mass"
Autoscroll
slow
fast
+/-
esc
set tempo
stop
Difficulty
intermediate
Band:Nuclear Assault
Song:Critical Mass
Album:Handle With Care
Tuning:Standard

Intro:x8 in total the left side once the right side 7 times
e--------------------------|---------------------------|
b--------------------------|---------------------------|
g--------------------------|---------------------------|
d-8-7-6-5-----4-----7-6-7-9|--7-6-5-----4-----7-6-7-9--|
a-8-7-6-5-----4-----5-4-5-7|--7-6-5-----4-----5-4-5-7--|
E-6-5-4-3-0-0-2-0-0--------|--5-4-3-0-0-2-0-0----------|
          x x   x x                x x   x x

before the first riff with just the guitar hit this chord then continue into the next 
d---|
                   a-3-|
                   E-1-|
1st Riff:x4
e---------------------------------------------------|
b---------------------------------------------------|
g-----------4---------------------4-----------------|
d-2---------4-----2-4-3-2---------4-----2-2-2-2-2-2-|
a-2---------2-----1-4-3-2---------2-----1-1-1-1-1-1-|
E-0-0-0-2-3---0-0---2-1-0-0-0-2-3---0-0-------------|
    x x x x   x x         x x x x   x x

Verse Riff:x4
e-----------------------------------------------------|
b-----------------------------------------------------|
g-----------------------------------------------------|
d-----------------------3-------------------3-----3p0-|
a---------3-------------1-------------3-----1-----1p0-|
E-0-0-0-0-1-0-0-0-0-0-0---0-0-0-0-0-0-1-0-0---0-0-----|
  x x x x   x x x x x x   x x x x x x   x x   x x


1st Riff:x4
e---------------------------------------------------|
b---------------------------------------------------|
g-----------4---------------------4-----------------|
d-2---------4-----2-4-3-2---------4-----2-2-2-2-2-2-|
a-2---------2-----1-4-3-2---------2-----1-1-1-1-1-1-|
E-0-0-0-2-3---0-0---2-1-0-0-0-2-3---0-0-------------|
    x x x x   x x         x x x x   x x

Verse Riff:x4
e-----------------------------------------------------|
b-----------------------------------------------------|
g-----------------------------------------------------|
d-----------------------3-------------------3-----3p0-|
a---------3-------------1-------------3-----1-----1p0-|
E-0-0-0-0-1-0-0-0-0-0-0---0-0-0-0-0-0-1-0-0---0-0-----|
  x x x x   x x x x x x   x x x x x x   x x   x x

1st Riff:x4                            |1,2,3        |4
e--------------------------------------|-------------|-----|
b--------------------------------------|-------------|-----|
g-----------4---------------------4----|-------------|-4-3-|
d-2---------4-----2-4-3-2---------4----|-2-2-2-2-2-2-|-2-3-|
a-2---------2-----1-4-3-2---------2----|-1-1-1-1-1-1-|-2-1-|
E-0-0-0-2-3---0-0---2-1-0-0-0-2-3---0-0|-------------|-----|
    x x x x   x x         x x x x   x x
Solo:
e-------------------------------------------------------------------|
b-/161616-/161616-/161616-/161616-15-14-13b-13b-13b-----------------|
g-/151515-/151515-/151515-/151515-14-13-12b-12b-12b-12b-14-12-------|
d-------------------------------------------------------------14-12-|
a-------------------------------------------------------------------|
E-------------------------------------------------------------------|
                                                         x  x  x  x
e---------------------------------15h18p15------15h18p15------15h18h15-|
b---------------------------151718--------151718--------151718---------|
g----------------14b-r12-14--------------------------------------------|
d----------12-14-------------------------------------------------------|
a-14-12-14-------------------------------------------------------------|
E----------------------------------------------------------------------|
  x   x  x  x  x
e----------15-18p17p15----15---------------------------------19-22p21p19-|
b-15-17-18-------------18----15h18p15----15----------------21------------|
g-------------------------------------17----17-15-14h15p14---------------|
d------------------------------------------------------------------------|
a------------------------------------------------------------------------|
E------------------------------------------------------------------------|

e---19-22p21p19---19-22p21p19---19-22p21p19---19-22p21p19---19-22p21p19-|
b-21------------21------------21------------21------------21------------|
g-----------------------------------------------------------------------|
d-----------------------------------------------------------------------|
a-----------------------------------------------------------------------|
E-----------------------------------------------------------------------|
    /hold---\
e-22b----22-22\-|
b---------------|
g---------------|
d---------------|
a---------------|
E---------------|

Under Solo:x8 in total the left side once the right side 7 times
e--------------------------|---------------------------|
b--------------------------|---------------------------|
g--------------------------|---------------------------|
d-8-7-6-5-----4-----7-6-7-9|--7-6-5-----4-----7-6-7-9--|
a-8-7-6-5-----4-----5-4-5-7|--7-6-5-----4-----5-4-5-7--|
E-6-5-4-3-0-0-2-0-0--------|--5-4-3-0-0-2-0-0----------|
          x x   x x                x x   x x

Verse Riff:x4
e-----------------------------------------------------|
b-----------------------------------------------------|
g-----------------------------------------------------|
d-----------------------3-------------------3-----3p0-|
a---------3-------------1-------------3-----1-----1p0-|
E-0-0-0-0-1-0-0-0-0-0-0---0-0-0-0-0-0-1-0-0---0-0-----|
  x x x x   x x x x x x   x x x x x x   x x   x x

1st Riff:x4                            |1,2,3        |4
e--------------------------------------|-------------|-----|
b--------------------------------------|-------------|-----|
g-----------4---------------------4----|-------------|-4-3-|
d-2---------4-----2-4-3-2---------4----|-2-2-2-2-2-2-|-2-3-|
a-2---------2-----1-4-3-2---------2----|-1-1-1-1-1-1-|-2-1-|
E-0-0-0-2-3---0-0---2-1-0-0-0-2-3---0-0|-------------|-----|
    x x x x   x x         x x x x   x x

Outro:x8 in total the left side once the right side 7 times
e--------------------------|---------------------------|
b--------------------------|---------------------------|
g--------------------------|---------------------------|
d-8-7-6-5-----4-----7-6-7-9|--7-6-5-----4-----7-6-7-9--|
a-8-7-6-5-----4-----5-4-5-7|--7-6-5-----4-----5-4-5-7--|
E-6-5-4-3-0-0-2-0-0--------|--5-4-3-0-0-2-0-0----------|
          x x   x x                x x   x x

Lyrics:
The bio-sphere, the place we live
It seems like we don't give a damn
Other species flushed down the tubes
We need another race to rape
The way we live, we will destroy
Every other living thing
Till none are left except our race
And then we will destroy ourselves

Another oil spill
Atomic waste displaced
Another forest dies
Bring on the acid rain

Slightly insane, the type of greed
That makes a world unfit for life
Toxic wastes destroy our seas
While poison gas pollutes the air
A waste of life, while no one cares
The earth becomes a giant tomb
Critical mass will be achieved
And ruins will be all that's left

Another oil spill
Atomic waste displaced
Another forest dies

A hell on earth, what we create
Dragging life to death with us
All living things destroyed or used
By shortsighted human beings
We do these things, let them be done
Apathy creates despair
The damamge done will be too great
The world wounded beyond repair

Another oil spill
Atomic waste displaced
Another forest dies

there you have it critical mass in its whole.All the other tabs i saw for it had the 
riff wrong and no solo so i took my shot at it its not perfect but really close i hope.
Any corrections email me at iheartpoop66676@yahoo.com for any corrections you may have.
comments
We did not receive enough feedback on this tab! Please rate:
print report bad tab
1 2 3 4 5
I want to post or [tab]
guest
You may want to rate the tab now too:
select rating
Please do not post tabs as comments. Select "correction" instead!