Oops, an error
Loading. Please wait.

Chernobyl Hampster Bass Tab

760 views 1 this week
no commentswrite comment
1 2 3 4 5
2 more votes to show rating
add to favorites
launch autoscroll
font size
0
reset
guitar tuner
Autoscroll
slow
fast
+/-
esc
set tempo
stop
Help us to improve Ultimate-Guitar.com Take our survey!
×
Difficulty
advanced

Tabbed By : max
e-mail:maxstollmeyer@yahoo.com

Tuning:standard
                  do this 2 times, it is done by slaping and poping the strings
G|-------x-8--------------------------x-8------------------------------------|
D|---------------------x9----------------------------------------------------|
A|--6----------------------------6--------------------x-9-7------------------|
E|------------x-6-7--------------------------x-6-7---------------------------|

G|-----------------------------------------------------------------------------|
D|-----------------------------------------------------------------------------|
A|-----------------------------------------------------------------------------|
E|----------0--0-0-----0--0-0----0--0-0---0-0-0-0-0----------------------------|
             now this is the verse riff and its done by taping the strings. the lower
tap with your left and the higher ones with your right.
G|--------------------------------|
D|---------8-----8-----9-------7--|
-|A|-----6-------------------5----|
E|------------6-----7-------------|        do that four times and then the verse starts.

G|-----------------------------------------------------------------------------|
D|-------8------8------9-------7---------8----8------9------7------------------|
A|---6---------------------5---------6-------------------5---------------------|
E|-----------6------7-----------------------6-----7----------------------------|

G|------------------------------------------------------------------------------|
D|------6-----6----7------5--------6-----6------7------5------------------------|
A|--4------------------3--------4------------------3----------------------------|
E|---------4-----5--------------------4------5----------------------------------|

G|-----------------------------------------------------------------------------|
D|-----8------8------9-------7--------8-----8------9--------7------------------|
A|--6--------------------5--------6---------------------5----------------------|
E|--------6------7-----------------------6-------7-----------------------------|

G|------6-----6------7-------5--------6-----6------7-------5-------------------|
D|---4-------------------3---------4-------------------3-----------------------|
A|---------4------5-----------------------4-----5------------------------------|
E|-----------------------------------------------------------------------------|

G|-------8------7/6-----------------------------------------------------------|
D|---------------------------8------9------10---------------------------------|
A|---6-------5---------------------------------9------------------------------|
E|-----------------------6-------7-----8--------------------------------------|
               do that twice and then do the next part slaping.

G|-----------------------------------------------------------------------------|
D|-----------------------------------------------------------------------------|
A|---6-x-5-5-4-x-3--------------------6-x-5-x-x-4-x-3--------------------------|
E|--------------------6-x-7-7-8-x-2--------------------6-x-7-7-8-x-x-2---------|
           do the hole verse again. the next part the bass is vust improvising so do the
in the cords D sharp and C.

this part is the bridge and its just this cool little riff. play it twice without
and then the rest is slaped.

G|-----------------------------------------------------------------------------|
D|-----------------23--3-3/5-3-2h3p2----2--------------------------------------|
A|-------------234-------------------4----4323---------------------------------|
E|-1-3-4--134-----------------------------------4323---------------------------|
          do that four times and then its this.
G|------------------7-9-10--12-13--13-13/15-13-12h13p12-10-12-10989--------|
D|--7-9-10--7-9-10--------------------------------------------------10989--|
A|-------------------------------------------------------------------------|
E|-------------------------------------------------------------------------|       that
a little bit different but its right. then do the other riff four times again and your done.

/  slide up
| \  slide down
| h  hammer-on
| p  pull-off
| ~  vibrato
| +  harmonic
| x  Mute note
Suggest correction
Give kudos to tab author, rate the tab!
1 2 3 4 5
comments
print report bad tab
guest
You may want to rate the tab now too:
select rating
Wanna post a correction for this tab? Suggest correction