Oops, an error
Loading. Please wait.

Parkay Tab

129 views 1 this week
no commentswrite comment
1 2 3 4 5
3 more votes to show rating
add to favorites
launch autoscroll
font size
0
reset
how to read this tab
guitar tuner
Autoscroll
slow
fast
+/-
esc
set tempo
stop
Help us to improve Ultimate-Guitar.com Take our survey!
×
Difficulty
novice
----------------------------------------------------------------------------
                             Parkay - Nuclear Rabbit
----------------------------------------------------------------------------
Tabbed by:kenvyn123
Email:kenvyn4@hotmail.com

Tuning:standard

One of my favorite Nuclear Rabbit songs. 

verse: (shoop shoop Bit)
off beat and clean
e|-10-10-|-10-10-|-7-7-|-7-7-|-3-3-|-3-3-|-5-5-|-5-5-|
B|-10-10-|-10-10-|-7-7-|-7-7-|-3-3-|-3-3-|-5-5-|-5-5-|
G|-11-11-|-11-11-|-8-8-|-8-8-|-4-4-|-4-4-|-6-6-|-6-6-|
D|-12-12-|-12-12-|-9-9-|-9-9-|-5-5-|-5-5-|-7-7-|-7-7-| X2
A|-------|-------|-----|-----|-----|-----|-----|-----|
E|-------|-------|-----|-----|-----|-----|-----|-----|
 
chorus: (Butter...Parkay Part)
   Fucking heavy distortion!!!
e|--------|--------|--------|------|
B|--------|--------|--------|------|
G|--------|--------|--------|------|
D|--------|--------|--------|------| X4
A|--------|--------|--------|------|
E|0-0-0-0-|2-0-0-0-|0-0-0-0-|4--6--|
 pm________________________________

 bridge: (vocal section)
  Heavy distortion and a hint of flange.
e|--------|--------|--------|--------|---------|------------| \
B|--------|--------|--------|--------|---------|------------|  \
G|--------|--------|--------|--------|---------|------------|  |
D|--------|--------|--------|--------|---------|------------|  |
A|--------|--------|--------|--------|---------|------------|  |
E|0-0-0-0-|2-3-4-4-|0-0-0-0-|2-3-6-6-|-0-0-0-0-|\6-\5-\4-\2-|  |
                                                               | X 4
e|--------|--------|--------|--------|---------|--------|      |
B|--------|--------|--------|--------|---------|--------|      |
G|--------|--------|--------|--------|---------|--------|      |
D|--------|--------|--------|--------|---------|--------|      |
A|--------|--------|--------|--------|---------|--------|     /
E|0-0-0-0-|2-3-4-4-|0-0-0-0-|2-3-6-6-|-0-0-0-0-|2-3-6-6-|    / 


struture: 

verse
chorus
verse
chorus
verse (double time)
bridge

Thanks and enjoy.

| /  slide up
| \  slide down
| h  hammer-on
| p  pull-off
| ~  vibrato
| +  harmonic
| x  Mute note
============================================================================
Suggest correction
Give kudos to tab author, rate the tab!
1 2 3 4 5
comments
print report bad tab
guest
You may want to rate the tab now too:
select rating
Wanna post a correction for this tab? Suggest correction