Oops, an error
Loading. Please wait.

Spork Chords

126 views 1 this week
no commentswrite comment
1 2 3 4 5
3 more votes to show rating
add to favorites
launch autoscroll
font size
0
reset
transpose
0
reset
display chords
guitar tuner
Autoscroll
slow
fast
+/-
esc
set tempo
stop
Help us to improve Ultimate-Guitar.com Take our survey!
×
Nuclear Rabbit
"Spork"
Vicuna
tabbed by Daaaaaaavid
daaaaaaavid@hotmail.com

Another Nuclear Rabbit song..it's actually
pretty fun to tab these, they're so interesting.

e|--  ------- -------  ------- -------  ------- -------8-8-8-8-8-8-8-8-|
B|-11h9-----9h7-----11h9-----9h7-----11h9-----9h7----------------------|
G|--  --0-0-- --0-0--  --0-0-- --0-0--  --0-0-- --0-0------------------|
D|--  ------- -------  ------- -------  ------- -----------------------|
A|--  ------- -------  ------- -------  ------- -----------------------|
E|--  ------- -------  ------- -------  ------- -----------------------|

play that 6 times

then play this chord and let it
ring out..the chord's hard to hear,
so here's my best guess..sounds okay
to me.

e|---|
B|-9-|
G|-9-|
D|-6-|
A|-7-|
E|-0-|

and then..

e|-------------10-10-10-10-10-10-10-10-|
B|-9-9-9-9-9-9-9 -9 -9 -9 -9 -9 -9 -9 -|
G|-9-9-9-9-9-9-10-10-10-10-10-10-10-10-|
D|-------------- -- -- -- -- -- -- -- -|
A|-------------- -- -- -- -- -- -- -- -|
E|-------------- -- -- -- -- -- -- -- -|

and then back into this:

e|--  ------- -------  ------- -------  ------- -------8-8-8-8-8-8-8-8-|
B|-11h9-----9h7-----11h9-----9h7-----11h9-----9h7----------------------|
G|--  --0-0-- --0-0--  --0-0-- --0-0--  --0-0-- --0-0------------------|
D|--  ------- -------  ------- -------  ------- -----------------------|
A|--  ------- -------  ------- -------  ------- -----------------------|
E|--  ------- -------  ------- -------  ------- -----------------------|

after that you play this again:

e|-------------10-10-10-10-10-10-10-10-|
B|-9-9-9-9-9-9-9 -9 -9 -9 -9 -9 -9 -9 -|
G|-9-9-9-9-9-9-10-10-10-10-10-10-10-10-|
D|-------------- -- -- -- -- -- -- -- -|
A|-------------- -- -- -- -- -- -- -- -|
E|-------------- -- -- -- -- -- -- -- -|

and stop on this note (vibrato
and slide down):

e|-----|
B|-9~\-|
G|-9~\-|
D|-----|
A|-----|
E|-----|

and then, this..another guess:

e|--  ------  ------  ------  ------  ------  -----6-6-6-6-6-6-6-6-|
B|--  ------  ------  ------  ------  ------  -----5-5-5-5-5-5-5-5-|
G|--  ------  ------  ------  ------  ------  -----3-3-3-3-3-3-3-3-|
D|--  ------  ------  ------  ------  ------  ---------------------|
A|-11\-0-0-10\-0-0-11\-0-0-10\-0-0-11\-0-0-10\-0-0-----------------|
E|--  ------  ------  ------  ------  ------  ---------------------|

then let this chord ring again:

e|---|
B|-9-|
G|-9-|
D|-6-|
A|-7-|
E|-0-|

then there's some drums and then
you play the chord again, vibrato
and slide off:

e|-----|
B|-9~\-|
G|-9~\-|
D|-6~\-|
A|-7~\-|
E|-0---|
Suggest correction
Give kudos to tab author, rate the tab!
1 2 3 4 5
comments
print report bad tab
guest
You may want to rate the tab now too:
select rating
Wanna post a correction for this tab? Suggest correction