Oops, an error
Loading. Please wait.

The San-Francisco Treat bass

210 views 1 this week
no commentswrite comment
1 2 3 4 5
3 more votes to show rating
add to favorites
×
Save as Personal and add changes to this tab that will be seen only by you. Learn more ›
×
You can save this tab as Personal to edit and correct it or add notes. All changes will be seen only by you. Learn more »
launch autoscroll
font size
0
reset
guitar tuner
edit
Autoscroll
slow
fast
+/-
esc
set tempo
stop
Band: Nuclear Rabbit
Song: The San-francisco Treat
Album: Vicuna
Tabbed by: choke383
Five String: GDAEB


0.06
G|------------------------------------------------|
D|6-----7-----6-----7-----6-----7-----6-----7-----|
A|---6-----7-----6-----7-----6-----7-----6-----7--|
E|4-----5-----4-----5-----4-----5-----4-----5-----|
B|---4-----5-----4-----5-----4-----5-----4-----5--|x2


0.22
G|---------------------------------|
D|---------8--9--9---------8--9--9-|
A|---------------------------------|
E|8-------6--7--7-8-------6--7--7--|
B|----8---------------8------------|x4


0.30   T
G|-----------------------------|
D|-----------------------------|
A|7----8-8------7-------8------|
E|----7-----8-------7-------8--|
B|-----------------------------|x2


0.38
G|------------------------------|
D|------------------------------|
A|------------------------------|
E|-------6-6--x-9-x-9-----------|
B|6-6--x--------------x-7-7--x--|x3
  S S  S S S  S S S S S S S  S

G|-----------------------|
D|-----------------------|
A|-----------------------|
E|-------6-6-------------|
B|6-6--x------x-6-6------|
  S S  S S S  S S S


0.50
G|------------------------------|
D|------------------------------|
A|------------------------------|
E|-------6-6--x-9-x-9-----------|
B|6-6--x--------------x-7-7--x--|
  S S  S S S  S S S S S S S  S

G|------------------------------|
D|------------------------------|
A|------------------------------|
E|-------6-6--x-9-x-9-x-9-------|
B|6-6--x------------------7--x--|
  S S  S S S  S S S S S S S  S

G|------------------------------|
D|------------------------------|
A|------------------------------|
E|-------6-6--x-9-x-9-----------|
B|6-6--x--------------x-7-7--x--|
  S S  S S S  S S S S S S S  S

G|-----------------------|
D|-----------------------|
A|-----------------------|
E|-------6-6-------------|
B|6-6--x------x-6-6------|
  S S  S S S  S S S


1.00
G|------------------------101010109999--|
D|--------------------------------------|
A|------------------------8-8-8-8-7777--|
E|----66669999--------6666--------------|
B|6666--------77776666------------------|X2


1.10
G|-------------------|
D|12-----13----------|
A|10-----11----------|
E|11-----12----------|
B|-------------------|

G|-----------------------------|
D|-----------------------------|
A|-----------------------------|
E|------6-6--x-9-x-9-----------|
B|-6--x--------------x-7-7--x--|
   S  S S S  S S S S S S S  S

G|-------------------|
D|12-----13----------|
A|10-----11----------|
E|11-----12----------|
B|-------------------|

G|-----------------------------|
D|-----------------------------|
A|-----------------------------|
E|------6-6--x-9-x-9-----------|
B|-6--x--------------x-7-7--x--|
   S  S S S  S S S S S S S  S

G|------------------------------|
D|------------------------------|
A|------------------------------|
E|-------6-6--x-9-x-9-x-9-------|
B|6-6--x------------------7--x--|
  S S  S S S  S S S S S S S  S

G|------------------------------|
D|------------------------------|
A|------------------------------|
E|-------6-6--x-9-x-9-----------|
B|6-6--x--------------x-7-7--x--|
  S S  S S S  S S S S S S S  S

G|---------------------------------|
D|---------------------------------|
A|--------------------9-8-7-7-7-7--|
E|-------6-6--X-6---9--------------|
B|6-6--x----------7--------------6-|
  S S  S S S  S S                S


1.30
G|------------------------------|
D|------------------------------|
A|------------------------------|
E|-------6-6--x-9-x-9-----------|
B|6-6--x--------------x-7-7--x--|
  S S  S S S  S S S S S S S  S

G|------------------------------|
D|---------------------------14-|
A|------------------------------|
E|-------6-6--x-9-x-9-x-1212x---|
B|6-6--x------------------------|
  S S  S S S  S S S S S S S SP

G|------------------------------|
D|------------------------------|
A|------------------------------|
E|-------6-6--x-9-x-9-----------|
B|6-6--x--------------x-7-7--x--|
  S S  S S S  S S S S S S S  S

G|-----------------------|
D|-----------------------|
A|-----------------------|
E|-------6-6-------------|
B|6-6--x------x-6-6------|
  S S  S S S  S S S


1.40
G|------------------------101010109999--|
D|--------------------------------------|
A|------------------------8-8-8-8-7777--|
E|----66669999--------6666--------------|
B|6666--------77776666------------------|X2


1.51
G|-------------------|
D|12-----13----------|
A|10-----11----------|
E|11-----12----------|
B|-------------------|

G|-----------------------------|
D|-----------------------------|
A|-----------------------------|
E|------6-6--x-9-x-9-----------|
B|-6--x--------------x-7-7--x--|
   S  S S S  S S S S S S S  S

G|-------------------|
D|12-----13----------|
A|10-----11----------|
E|11-----12----------|
B|-------------------|

G|-----------------------------|
D|-----------------------------|
A|-----------------------------|
E|------6-6--x-9-x-9-----------|
B|-6--x--------------x-7-7--x--|
   S  S S S  S S S S S S S  S

G|------------------------------|
D|------------------------------|
A|------------x-8-x-8-x-7-7-----|
E|-------6-6--------------------|
B|6-6--x---------------------x--|
  S S  S S S  S S S S S S S  S

G|------------------------------|
D|------------------------------|
A|------------------------------|
E|-------6-6--x-9-x-9-----------|
B|6-6--x--------------x-7-7--x--|
  S S  S S S  S S S S S S S  S

G|------------------------------|
D|------------------------------|
A|------------------------------|
E|-------6-6----999999----------|
B|6-6--x------x-------777777-6--|
  S S  S S S  S              S


2.10
G|---------------------------------------------------------|
D|------7-7-7h9-------7-7-7h9-------7-7-7h9-------7-7-7h9--|
A|--9-------------9-------------9-------------9------------|
E|----8-------------8-------------8-------------8----------|
B|6-------------6-------------6-------------6--------------|x3
  S P S P P P   S P S P P P   S P S P P P   S P S P P P

G|------------------------|
D|------------------------|
A|7-----8-----7-----8-----|
E|---7-----8-----7-----8--|
B|------------------------|

G|-----------------------------|
D|------7-7-7h9-------7-7-7h9--|
A|--9-------------9------------|
E|----8-------------8----------|
B|6-------------6--------------|
  S P S P P P   S P S P P P  

G|------------------------|
D|------------------------|
A|7-----8-----7-----8-----|
E|---7-----8-----7-----8--|
B|------------------------|

G|-----------------------------|
D|------7-7-7h9-------7-7-7h9--|
A|--9-------------9------------|
E|----8-------------8----------|
B|6-------------6--------------|
  S P S P P P   S P S P P P  

G|-------------------------|
D|-------8-9-9-------8-9-9-|
A|-------------------------|
E|8-----6-7-7-8-----6-7-7--|
B|---8-----------8---------|

G|-----------------------------|
D|------7-7-7h9-------7-7-7h9--|
A|--9-------------9------------|
E|----8-------------8----------|
B|6-------------6--------------|
  S P S P P P   S P S P P P  

G|-------------------------|
D|-------8-9-9-------8-9-9-|
A|-------------------------|
E|8-----6-7-7-8-----6-7-7--|
B|---8-----------8---------|

G|-----------------------------|
D|------7-7-7h9-------7-7-7h9--|
A|--9-------------9------------|
E|----8-------------8----------|
B|6-------------6--------------|
  S P S P P P   S P S P P P  

G|---------------------------------------------------------|
D|------7-7-7h9-------7-7-7h9-------7-7-7h9-------7-7-7h9--|
A|--9-------------9-------------9-------------9------------|
E|----8-------------8-------------8-------------8----------|
B|6-------------6-------------6-------------6--------------|
  S P S P P P   S P S P P P   S P S P P P   S P S P P P


3.02
G|-----|
D|11---|
A|-----|
E|-----|
B|-----|
  P

G|------------------------------|
D|------------------------------|
A|------------------------------|
E|-------6-6--x-9-x-9-----------|
B|6-6--x--------------x-7-7--x--|
  S S  S S S  S S S S S S S  S

G|------------------------------|
D|------------------------------|
A|------------------------------|
E|-------6-6--x-9-x-9-x-9-------|
B|6-6--x------------------7--x--|
  S S  S S S  S S S S S S S  S

G|------------------------------|
D|------------------------------|
A|------------------------------|
E|-------6-6--x-9-x-9-----------|
B|6-6--x--------------x-7-7--x--|
  S S  S S S  S S S S S S S  S

G|-----------------------|
D|-----------------------|
A|-----------------------|
E|-------6-6-------------|
B|6-6--x------x-6-6------|
  S S  S S S  S S S


3.13
G|------------------------101010109999--|
D|--------------------------------------|
A|------------------------8-8-8-8-7777--|
E|----66669999--------6666--------------|
B|6666--------77776666------------------|X2


3.25
G|-------------------|
D|12-----13----------|
A|10-----11----------|
E|11-----12----------|
B|-------------------|

G|-----------------------------|
D|-----------------------------|
A|-----------------------------|
E|------6-6--x-9-x-9-----------|
B|-6--x--------------x-7-7--x--|
   S  S S S  S S S S S S S  S

G|-------------------|
D|12-----13----------|
A|10-----11----------|
E|11-----12----------|
B|-------------------|

G|-----------------------------|
D|-----------------------------|
A|-----------------------------|
E|------6-6--x-9-x-9-----------|
B|-6--x--------------x-7-7--x--|
   S  S S S  S S S S S S S  S

G|------------------------------|
D|------------------------------|
A|------------x-8-x-8-x-7-7-----|
E|-------6-6--------------------|
B|6-6--x---------------------x--|
  S S  S S S  S S S S S S S  S

G|------------------------------|
D|------------------------------|
A|------------------------------|
E|-------6-6--x-9-x-9-----------|
B|6-6--x--------------x-7-7--x--|x4
  S S  S S S  S S S S S S S  S

G|------|
D|------|
A|6~~~--|
E|6~~~--|
B|4~~~--|



Any comments, questions or jokes send to style444@hotmail.com
Suggest correction
Creating personal tab
Creating personal tab
You can edit any tab online and save it as your Personal.

You can edit, replace or remove any tab part or add personal notes – all changes will be seen only by you.

Personal tabs can be accessed anytime from any device, even offline.
Learn more »
Give kudos to tab author, rate the tab!
1 2 3 4 5
comments
print report bad tab
guest
You may want to rate the tab now too:
select rating
Wanna post a correction for this tab? Suggest correction