Oops, an error
Loading. Please wait.

Crisis Tab

7 views 1 this week
no commentswrite comment
1 2 3 4 5
3 more votes to show rating
add to favorites
launch autoscroll
font size
0
reset
how to read this tab
guitar tuner
Autoscroll
slow
fast
+/-
esc
set tempo
stop
Help us to improve Ultimate-Guitar.com Take our survey!
×
Author
Difficulty
novice
Tabbed by J


[Verse]

A crisis is coming
It's not just in my head
The signs are all around there's 
No one here to make a sound
A crisis is coming 
Helpless to stand and fight
No time to run and hide 
It's too late to stem the tide

e|-------------------------------------|
B|-------------------------------------|
G|-9-9-9-9-----------------------------|
D|-9-9-9-9-7-7-7-7-10-10-10-10-9-9-9-9-| 
A|-7-7-7-7-7-7-7-7-10-10-10-10-9-9-9-9-|
E|---------5-5-5-5-8--8--8--8--7-7-7-7-|(x4)

Riff during verse played after first verse

e|---------|
B|---------|
G|-9h11p9--|
D|---------|
A|---------|
E|---------|(x8)

[Chorus]

Is this it
Are we Sick
Or can we 
resist it
Is this it
Are we Sick
Or can we 
resist it
Is this it 
Is this it
Is this it 
Is this it

e|---------------------------------|
B|---------------------------------|
G|-----------------4-4-4-4-5-5-5-4-|
D|-5-5-5-5-2-2-2-2-4-4-4-4-5-5-5-4-| 
A|-5-5-5-5-2-2-2-2-2-2-2-2-3-3-3-2-|
E|-3-3-3-3-0-0-0-0-----------------|(x3)


[Chorus Outro]

e|-------------------------|
B|-------------------------|
G|-----------------4-4-2-4-|
D|-5-5-5-5-5-5-2-2-4-4-4-4-|
A|-5-5-5-5-5-5-2-2-2-2-2-2-|
E|-3-3-3-3-3-3-0-0---------|


[Outro]

e|---------------------------------------------------------------------------------|
B|---------------------------------------------------------------------------------|
G|-9-9-9-9---------------------------------9-9-9-9---------------------------------|
D|-9-9-9-9-7-7-7-7-10-10-10-10-12-12-12-12-9-9-9-9-10-10-10-10-7-7-7-7-12-12-12-12-|
A|-7-7-7-7-7-7-7-7-10-10-10-10-12-12-12-12-7-7-7-7-10-10-10-10-7-7-7-7-12-12-12-12-|
E|---------5-5-5-5-8--8--8--8--10-10-10-10---------8--8--8--8--5-5-5-5-10-10-10-10-|(x2)

e|-------------------------------|
B|-------------------------------|
G|-9-9-9-9-----------------------|
D|-9-9-9-9-10-10-10-10-7-7-7-7-9-|
A|-7-7-7-7-10-10-10-10-7-7-7-7-9-|
E|---------8--8--8--8--5-5-5-5-7-|



************************************

| h   Hammer-on
| p   Pull-off

************************************
Suggest correction
Give kudos to tab author, rate the tab!
1 2 3 4 5
comments
print report bad tab
guest
You may want to rate the tab now too:
select rating
Wanna post a correction for this tab? Suggest correction