Oops, an error
Loading. Please wait.

Damned bass

28 views 1 this week
no commentswrite comment
1 2 3 4 5
3 more votes to show rating
add to favorites
×
Save as Personal and add changes to this tab that will be seen only by you. Learn more ›
×
You can save this tab as Personal to edit and correct it or add notes. All changes will be seen only by you. Learn more »
launch autoscroll
font size
0
reset
guitar tuner
edit
Autoscroll
slow
fast
+/-
esc
set tempo
stop
Author
Difficulty
 This is my 3rd Nudeswirl tab. I think this is how it'a play. It's all in a tritone 
chord on guitar.

Main riff
G|------------|------------|
D|------------|------------|
A|-3---3-3-3--|-1---1-1-1--|
E|--2-2-2-2-2-|--0-0-0-0-0-|

Intro solo (this is what I hear)
G|--10-9-7---------------|
D|-0------10-9-7-5-3-2---|
A|---------------------1-|
E|-----------------------|
                     Last note goes back into verse

G|------5/7-9-10-12-10-9-7-----|
D|---3/5------------------10-9-|
A|-3---------------------------|
E|-----------------------------|

Chorus  "Damned, I'm damned..."
G|------------------------------|
D|------------------------------|
A|-7-7-7-7-6-6-6-6-5-5-----5----|
E|---------------------5-5---5--|

Second time
"I'm waiting for the rain.......bow"
G|---------------------------------|
D|---------------------------------|
A|-7-7-7-7-6-6-6-6-5-5-----5-----0-|
E|---------------------5-5--hold---|

That's really it I guess. I'm working on a guitar tab. This might not be completely 
accurate but it's pretty close.

            
            
Suggest correction
Creating personal tab
Creating personal tab
You can edit any tab online and save it as your Personal.

You can edit, replace or remove any tab part or add personal notes – all changes will be seen only by you.

Personal tabs can be accessed anytime from any device, even offline.
Learn more »
Give kudos to tab author, rate the tab!
1 2 3 4 5
comments
print report bad tab
guest
You may want to rate the tab now too:
select rating
Wanna post a correction for this tab? Suggest correction