Oops, an error
Loading. Please wait.

Lady Brown Bass Tab

91 views 6 this week
no commentswrite comment
1 2 3 4 5
3 more votes to show rating
add to favorites
launch autoscroll
font size
0
reset
guitar tuner
Autoscroll
slow
fast
+/-
esc
set tempo
stop
Help us to improve Ultimate-Guitar.com Take our survey!
×
Author
Difficulty
About this tab version
Standard tuning, might not be 100%, but I'm pretty sure this is correct. Was this info helpful? Yes No
[Intro] (8x)

G|--------------|
D|14-12-10------|
A|--------------|
E|--------------|

(Played in tandem with guitar's first 3 chords)

[Verse 1] (2x)

G|--------------9--9--------9--|
D|10--10--9--9--------7-5h7----|
A|-----------------------------|
E|-----------------------------|

G|---9-----9---7--7---7-9-8-7--|
D|7-----7----7-----------------|
A|-----------------------------|
E|-----------------------------|

(Listen to get the feel for the timing, especially the last 4 notes)                      

G|--------------9--9--------9--|
D|10--10--9--9--------7-5h7----|
A|-----------------------------|
E|-----------------------------|

G|-----------------------------|
D|10--10--7--7--6--6--99--999--|
A|-----------------------------|
E|-----------------------------|

(The last notes are played relatively fast, might have to listen to get the feel again)

[Chorus] (4x)

G|--------------|
D|14-12-10------|
A|--------------|
E|--------------|

(Played with guitar like in the intro)

[Verse 2] (3x)

G|--------------9--9--------9--|
D|10--10--9--9--------7-5h7----|
A|-----------------------------|
E|-----------------------------|

G|---9-----9---7--7---7-9-8-7--|
D|7-----7----7-----------------|
A|-----------------------------|
E|-----------------------------|       

G|--------------9--9--------9--|
D|10--10--9--9--------7-5h7----|
A|-----------------------------|
E|-----------------------------|

G|-----------------------------|
D|10--10--7--7--6--6--99--999--|
A|-----------------------------|
E|-----------------------------|

[Chorus] (4x)

G|--------------|
D|14-12-10------|
A|--------------|
E|--------------|

[Verse 3] (2x)

G|--------------9--9--------9--|
D|10--10--9--9--------7-5h7----|
A|-----------------------------|
E|-----------------------------|

G|---9-----9---7--7---7-9-8-7--|
D|7-----7----7-----------------|
A|-----------------------------|
E|-----------------------------|       

G|--------------9--9--------9--|
D|10--10--9--9--------7-5h7----|
A|-----------------------------|
E|-----------------------------|

G|-----------------------------|
D|10--10--7--7--6--6--99--999--|
A|-----------------------------|
E|-----------------------------|

[Outro] (8x)

G|--------------|
D|14-12-10------|
A|--------------|
E|--------------|

************************************

| h   Hammer-on

************************************
Suggest correction
Give kudos to tab author, rate the tab!
1 2 3 4 5
comments
print report bad tab
guest
You may want to rate the tab now too:
select rating
Wanna post a correction for this tab? Suggest correction