Oops, an error
Loading. Please wait.

Shiki No Uta Bass Tab

4,916 views 24 this week
1 commentread comment
1 2 3 4 5
x 5
add to favorites
launch autoscroll
font size
0
reset
guitar tuner
Autoscroll
slow
fast
+/-
esc
set tempo
stop
Help us to improve Ultimate-Guitar.com Take our survey!
×
Author
Hello! My name's Mahomy (mahomy1000 on Youtube) and I have here the bass tabs for Shiki no uta.
Boss riff to just chill with

Repeat the main rift until Saxophone Solo

Main Riff:

G|---------8-8-/10----------------|---------------------|
D|-------------------------6-6-/8-|-----------8-8-6-----|
A|--6----------------8------------|-----------------8-7-|
E|--------------------------------|-6~------------------|


Saxophone Solo Riff:

G|--------------------------|----------------------|
D|--------------------------|---6/8--6-------------|
A|-6-6-----4-6-8------------|-----------8/6---8----|
E|-----4/6-------6-8--0-1-3-|-6-------------6---6/8|

Repeat until solo is over, then go back to main riff.

/ means slide
Suggest correction
comments
print report bad tab
1 comment total.
0 reply
BookofBot72 430 May 17, 2015 11:02 PM

Damn, I wanted to tab this song on bass.
Then I look it up and see someone already did it and did it well
Great job

guest
You may want to rate the tab now too:
select rating
Wanna post a correction for this tab? Suggest correction