Oops, an error
Loading. Please wait.

Greebo bass

39 views 3 this week
no commentswrite comment
1 2 3 4 5
3 more votes to show rating
add to favorites
×
Save as Personal and add changes to this tab that will be seen only by you. Learn more ›
×
You can save this tab as Personal to edit and correct it or add notes. All changes will be seen only by you. Learn more »
launch autoscroll
font size
0
reset
guitar tuner
edit
Autoscroll
slow
fast
+/-
esc
set tempo
stop
Author
Difficulty
Tabbed by:Grunge Forever

Artist: Nukeateen
Song:   Greebo
Album:  Reginald's Revenge

http://myspace.com/nukeateen

This is Greebo from the band Nukeateen, featuring an awesome bass line and very
angsty vocal melody.
This is the bass tab, take note for the changes and runs they come in at some
quite specific places.
I've done the guitar seperatly! have fun

(/) Slide Up  (\) Slide Down  (h) Hammer On  (p) Pull Off  (b) Bend (r) Release (v) Vibrato

Intro (comes in on start of 3rd and 4th bar of guitar intro)

G|--17-19-------17-14-----|
D|------------------------|
A|------------------------|
E|------------------------|

Verse/Pre-chorus

G|------------------------|
D|--12--12-10---------10--|
A|------------12---12-----|
E|------------------------|

Every 4th bar is played as:

G|------10--9-------------|
D|--12----------------10--|
A|------------12---12-----|
E|------------------------|


Build Up


G|--------------------------------------------------------------|
D|--------------------------------------------------------------|
A|--8--8--8--8--8--8--8--8----8--8----8-10-10-10---10-10-10-10--|
E|--------------------------------------------------------------|

On the second time play

G|--------------------------------------------------------------|
D|-------10----10----10-----------------------------------------|
A|--8--8-----8-----8-----8----8--8----8-10-10-10---10-10-10-10--|
E|--------------------------------------------------------------|


Chorus

The chorus alternates between these two bars, except on the first chorus
where there is only 1 bar before the vocals begin, so we skip the second
bar.

G|----------------------------10--9--------------|
D|-----------------------12----------------------|
A|--8----8--8-10---10-10------------12---12-\-10-|
E|-----------------------------------------------|

G|--------------------------9-10-12-10-9--------|
D|-----------------------12--------------12-----|
A|--8----8--8-10---10-10--------------------12--|
E|----------------------------------------------|


Chorus last bar

G|------------------------------------------------------------|
D|------------------------------------2-\-7-7--7-7--7-7-7-7-7-|
A|--8----8--8-10---10-10-5---3---0----------------------------|
E|------------------------------------------------------------|

Post-chorus

G|---------------------------------------------|
D|--12--12-10---------10-12--12-10---------10--|
A|------------12---12--------------12---12-----|
E|---------------------------------------------|

G|------10--9----------------10--9-------------|
D|--12----------------10-12----------------10--|
A|------------12---12--------------12---12-----|
E|---------------------------------------------|

Last part of the song (post chorus repeat) is:

G|---------------------------------------------|
D|--12--12-10---------10-12--12-10---------10--|
A|------------12---12--------------12---12-----|
E|---------------------------------------------|


G|------10--9---------------9-10-12-10-9---------|
D|--12----------------10-12--------------12----0-|
A|------------12---12-----------------------12---|
E|-----------------------------------------------|

D           A            D          A
I'm sitting here and I'm waiting to see you,
D           A            D          A
I'm sitting here and I'm waiting to meet you,
D           A            D          A
I'm sitting here and I'm waiting to see you

Build Up

F           G
now...

Pre-chorus

D       A
I can't seem to,
D          A
They can't mean to,
D       A       D       A
Make me feel so fucking awful

Chorus

F     G         D       A
Why I help them I don't know,
F        G      D        A
I should really let them know,
F       G          D         A
I don't like them, they like me,
F        G      D   C    A
I should really let them see


Post-chorus

D     A
I'm a Meenie,
D     A
I'm a Greenie,
D     A
I'm a Weirdo,
D     A
I'm a Greebo

            
            
Suggest correction
Creating personal tab
Creating personal tab
You can edit any tab online and save it as your Personal.

You can edit, replace or remove any tab part or add personal notes – all changes will be seen only by you.

Personal tabs can be accessed anytime from any device, even offline.
Learn more »
Give kudos to tab author, rate the tab!
1 2 3 4 5
comments
print report bad tab
guest
You may want to rate the tab now too:
select rating
Wanna post a correction for this tab? Suggest correction