Oops, an error
Loading. Please wait.

Undressing Benn bass

124 views 1 this week
no commentswrite comment
1 2 3 4 5
3 more votes to show rating
add to favorites
×
Save as Personal and add changes to this tab that will be seen only by you. Learn more ›
×
You can save this tab as Personal to edit and correct it or add notes. All changes will be seen only by you. Learn more »
launch autoscroll
font size
0
reset
guitar tuner
edit
Autoscroll
slow
fast
+/-
esc
set tempo
stop
Author
Difficulty
Tabbed by:Grunge Forever

Artist: Nukeateen
Song:   Undressing Benn
Album:  Ozone

http://myspace.com/nukeateen

This is Undressing Benn from the band Nukeateen, featuring an increadible bass line and 
really cool solo. I've just tabbed the bass but I'll do the guiter seperatly! have fun

For the opening note, just touch the 12th fret to create a harmony.

G 0--|12----|
D ---|------|
A ---|------|
E ---|------|

Intro / Verse

G ----5---|--------|
D --7---7-|----5---|
A 0-------|--7---7-|
E --------|0-------|

Chorus

G --------|--------|--------|-----------------------|
D --------|--------|--------|-----------------------|
A --------|--------|--------|-----------------------|
E 5-5-5-55|0-0-0-00|5-5-5-55|12-12-12-12-12-12-12-12|

Solo

G --------|--------|
D --------|--------|
A 0-------|0-------|
E --------|--------|

G ----5---|--------|----5---|--------|
D --7---7-|----5---|--7---7-|----5---|
A 0-------|--7---7-|0-------|--7---7-|
E --------|0-------|--------|0-------|

(Guitar Starts)

G ----5---|--------|----5---|--------|
D --7---7-|----5---|--7---7-|----5---|
A 0-------|--7---7-|0-------|--7---7-|
E --------|0-------|--------|0-------|

G ----5---|----7---|----5---|----7---|
D --7---7-|--9---9-|--7---7-|--9---9-|
A 0-------|--------|0-------|--------|
E --------|0-------|--------|0-------|

G ----5---|--------|----5---|--------|
D --7---7-|----5---|--7---7-|----5---|
A 0-------|--7---7-|0-------|--7---7-|
E --------|0-------|--------|0-------|

G ----5---|--------|----5---|----7---|
D --7---7-|----5---|--7---7-|--9---9-|
A 0-------|--7---7-|0-------|--------|
E --------|0-------|--------|0-------|

Final Chorus

G 5-5-5-55|--------|
D 7-7-7-77|5-5-5-55|
A 0-0-0-00|7-7-7-77|
E --------|0-0-0-00|

Outro

G --------|-----------------------|
D --------|-----------------------|
A --------|-----------------------|
E 5-5-5-55|12-12-12-12-12-12-12-12|

Verse 1
She Appeared, (She Appeared)
She Appeared, As if by magic

She Appeared, (She Appeared)
She Appeared, As if by magic

Chorus
As if by Magic, She Appeared
As if by Magic, I had no beer
As if by Magic, She Appeared
As if by Magic, I had no beer

Verse 2
As if by Magic, She Appeared
As if by Magic, I had no beer
As if by Magic, She Appeared
As if by Magic, I changed my shoe

Chorus
As if by Magic, She Appeared
As if by Magic, I had no beer
As if by Magic, She Appeared
As if by Magic, I had no beer
Suggest correction
Creating personal tab
Creating personal tab
You can edit any tab online and save it as your Personal.

You can edit, replace or remove any tab part or add personal notes – all changes will be seen only by you.

Personal tabs can be accessed anytime from any device, even offline.
Learn more »
Give kudos to tab author, rate the tab!
1 2 3 4 5
comments
print report bad tab
guest
You may want to rate the tab now too:
select rating
Wanna post a correction for this tab? Suggest correction