Oops, an error
Loading. Please wait.

Its Happening tab

350 views 1 this week
3 commentsread comments
1 2 3 4 5
2 more votes to show rating
add to favorites
×
Save as Personal and add changes to this tab that will be seen only by you. Learn more ›
×
You can save this tab as Personal to edit and correct it or add notes. All changes will be seen only by you. Learn more »
launch autoscroll
font size
0
reset
how to read this tab
guitar tuner
edit
Autoscroll
slow
fast
+/-
esc
set tempo
stop
First off, all the tabs for any NOF song on this wensite, and any other, are terrible. Mine are right.

Standard Tuning RELEVANT TO
Capo Second Fret

Intro:
|-0--------------------------------------------------------------------|
|-2--------------------------------------------------------------------|
|-2--------------------------------------------------------------------|
|-2--------------------------------------------------------------------|
|-0--------------------------------------------------------------------|
|----------------------------------------------------------------------|
Strummed Consistantly.

Verse:
|-0--------------------------------------------------------------------|
|-2--------------------------------------------------------------------|
|-2--------------------------------------------------------------------|
|-2--------------------------------------------------------------------|
|-0--------------------------------------------------------------------|
|----------------------------------------------------------------------|
Same deal as intro

PreChorus:
|----------------------------------------------------------------------|
|---------0------------------------------------------------------------|
|-----2-----2---2------------------------------------------------------|
|---2---2-----2--------------------------------------------------------|
|-0--------------------------------------------------------------------|
|----------------------------------------------------------------------|
You could not wait one more day... it's happening.

Second verse is the same, then it's the bridge...

Bridge:
|----------------------------------------------------------------------|
|----------------------------------------------------------------------|
|-88888888-66666666-22222222-------------------------------------------|
|-xxxxxxxx-xxxxxxxx-xxxxxxxx-------------------------------------------|
|-66666666-44444444-00000000-------------------------------------------|
|----------------------------------------------------------------------|

|----------------------------------------------------------------------|
|----------------------------------------------------------------------|
|-88-9-8---------------------------------------------------------------|
|-xx-x-x---------------------------------------------------------------|
|-66-7-6---------------------------------------------------------------|
|----------------------------------------------------------------------|

Ending:
|----------------------------------------------------------------------|
|---------0------------------------------------------------------------|
|-----2-----2---2------------------------------------------------------|
|---2---2-----2--------------------------------------------------------|
|-0--------------------------------------------------------------------|
|----------------------------------------------------------------------|
You could not wait one more day... it's happening.



That's about it. Message me with any questions!

            
            
Suggest correction
Creating personal tab
Creating personal tab
You can edit any tab online and save it as your Personal.

You can edit, replace or remove any tab part or add personal notes – all changes will be seen only by you.

Personal tabs can be accessed anytime from any device, even offline.
Learn more »
Give kudos to tab author, rate the tab!
1 2 3 4 5
comments
print report bad tab
3 comments total.
0 reply
thegreatindoors 41 Oct 23, 2006 06:00 AM

There is way more going on in this song than what you have here.

http://video.google.com/videoplay?docid=7355164362571183238&q=number+one+fan

That's a link of them playing it.

0 reply
christoperziggy 52 Oct 23, 2006 10:05 AM

yeah, theres the lead i forgot nicolas plays for the intro it's simply


|--121212--121212--------------------------|
|--121212--121212--------------------------|
|--0-0-0---0-0-0---------------------------|
|------------------------------------------|
|------------------------------------------|
|------------------------------------------|

theres also more in the verse.
ill try to figure it out.


thanks.

0 reply
Derekrm 10 Jun 08, 2008 10:16 AM

Yeah I tried this, it sounds absolutely nothing like the song. Sorry =/

guest
You may want to rate the tab now too:
select rating
Wanna post a correction for this tab? Suggest correction